» » »

Napalm Death, Vegetative State Tabs (ver.1)

Artists:  A B C D E F G H I J K L M N O P Q R S T U V W X Y Z # 

Vegetative State Tabs (ver.1)

Napalm Death Tabs
Rating:
0/5 (0 votes)
Vegetative State lessons Tabs too difficult? Try these video lessons and learn fast
                -------------------------------------------------------------------------------
-------------------------------------------------------------------------------


Tuning: Drop D

| h  hammer-on
| *  palm mute
===============================================================================
I'm pretty sure I got this song just about right. It goes pretty fast, but what I've 
out sounds just like it


e|----------------------------------------------------------|
B|----------------------------------------------------------|
G|-------------------------------------------------------7--|
D|-5-5-5-5-5-5-5-5---------8-8-8-8-9-9-9-9-9-9-9-9-8---8-5--|
A|-3-3-3-3-3-3-3-3-5-5-5-5-6-6-6-6-7-7-7-7-7-7-7-7-6-7-6----|
E|-----------------3-3-3-3---------------------------5------|

e|------------------------------------------------------------|
B|------------------------------------------------------------|
G|------------------------------------------------------------|
D|-4-4-4-4-4-4-4-4---------7-7-7-7-8-8-8-8-8-8-8-8-7---8-7----|
A|-2-2-2-2-2-2-2-2-4-4-4-4-5-5-5-5-6-6-6-6-6-6-6-6-5-5-6-5-5--|
E|-----------------2-2-2-2---------------------------3-----3--|

e|----------------------------------------------------------|
B|----------------------------------------------------------|
G|-------------------------------------------------------7--|
D|-5-5-5-5-5-5-5-5---------8-8-8-8-9-9-9-9-9-9-9-9-8---8-5--|
A|-3-3-3-3-3-3-3-3-5-5-5-5-6-6-6-6-7-7-7-7-7-7-7-7-6-7-6----|
E|-----------------3-3-3-3---------------------------5------|

e|------------------------------------------------------------|
B|------------------------------------------------------------|
G|------------------------------------------------------------|
D|-4-4-4-4-4-4-4-4---------7-7-7-7-8-8-8-8-8-8-8-8-7---8-7----|
A|-2-2-2-2-2-2-2-2-4-4-4-4-5-5-5-5-6-6-6-6-6-6-6-6-5-5-6-5-5--|
E|-----------------2-2-2-2---------------------------3-----3--|

e|----------------------------------------------------------|
B|----------------------------------------------------------|
G|-------------------------------------------------------7--|
D|-5-5-5-5-5-5-5-5---------8-8-8-8-9-9-9-9-9-9-9-9-8---8-5--|
A|-3-3-3-3-3-3-3-3-5-5-5-5-6-6-6-6-7-7-7-7-7-7-7-7-6-7-6----|
E|-----------------3-3-3-3---------------------------5------|

e|------------------------------------------------------------|
B|------------------------------------------------------------|
G|------------------------------------------------------------|
D|-4-4-4-4-4-4-4-4---------7-7-7-7-8-8-8-8-8-8-8-8-7---8-7----|
A|-2-2-2-2-2-2-2-2-4-4-4-4-5-5-5-5-6-6-6-6-6-6-6-6-5-5-6-5-5--|
E|-----------------2-2-2-2---------------------------3-----3--|

e|----------------------------------|
B|----------------------------------|
G|----------------------------------|
D|-5-------------5h4h5h4h5h4h5-8-8--|
A|---4-4-4-4-4-4--------------------|
E|----------------------------------| x4

e|--------------------------------|
B|--------------------------------|
G|--------------------------------|
D|---6-6-6-6-6-6---------3-3-3-3--|
A|-5-4-4-4-4-4-4-5-5-5-5-1-1-1-1--|
E|-3-------------3-3-3-3----------| x4

e|----------------------------------------------------------|
B|----------------------------------------------------------|
G|-------------------------------------------------------7--|
D|-5-5-5-5-5-5-5-5---------8-8-8-8-9-9-9-9-9-9-9-9-8---8-5--|
A|-3-3-3-3-3-3-3-3-5-5-5-5-6-6-6-6-7-7-7-7-7-7-7-7-6-7-6----|
E|-----------------3-3-3-3---------------------------5------|

e|------------------------------------------------------------|
B|------------------------------------------------------------|
G|------------------------------------------------------------|
D|-4-4-4-4-4-4-4-4---------7-7-7-7-8-8-8-8-8-8-8-8-7---8-7----|
A|-2-2-2-2-2-2-2-2-4-4-4-4-5-5-5-5-6-6-6-6-6-6-6-6-5-5-6-5-5--|
E|-----------------2-2-2-2---------------------------3-----3--|

e|----------------------------------------------------------|
B|----------------------------------------------------------|
G|-------------------------------------------------------7--|
D|-5-5-5-5-5-5-5-5---------8-8-8-8-9-9-9-9-9-9-9-9-8---8-5--|
A|-3-3-3-3-3-3-3-3-5-5-5-5-6-6-6-6-7-7-7-7-7-7-7-7-6-7-6----|
E|-----------------3-3-3-3---------------------------5------|

e|------------------------------------------------------------|
B|------------------------------------------------------------|
G|------------------------------------------------------------|
D|-4-4-4-4-4-4-4-4---------7-7-7-7-8-8-8-8-8-8-8-8-7---8-7----|
A|-2-2-2-2-2-2-2-2-4-4-4-4-5-5-5-5-6-6-6-6-6-6-6-6-5-5-6-5-5--|
E|-----------------2-2-2-2---------------------------3-----3--|

e|----------------------------------|
B|----------------------------------|
G|----------------------------------|
D|-5-------------5h4h5h4h5h4h5-8-8--|
A|---4-4-4-4-4-4--------------------|
E|----------------------------------| x4

e|--------------------------------|
B|--------------------------------|
G|--------------------------------|
D|---6-6-6-6-6-6---------3-3-3-3--|
A|-5-4-4-4-4-4-4-5-5-5-5-1-1-1-1--|
E|-3-------------3-3-3-3----------| x4

e|------------------------------------------------------------|
B|------------------------------------------------------------|
G|---------------------------------------------------------5--|
D|-5-------8-------4-----------------------8-------4-------3--|
A|-3-------6-------2-------4-------3-------6-------2----------|
E|---0-0-0---0-0-0---0-0-0-2-0-0-0-1-0-0-0---0-0-0---0-0-0----|
     * * *   * * *   * * *   * * *   * * *   * * *   * * *

e|------------------------------------------------|
B|-----------------------------------------3---3--|
G|---------------------------------------6-2-5-2--|
D|-------5-------8-------4---------------4---3----|
A|-------3-------6-------2-------4----------------|
E|-0-0-0---0-0-0---0-0-0---0-0-0-2-0-0-0----------|
   * * *   * * *   * * *   * * *   * * *

e|------------------------------------------------------------|
B|------------------------------------------------------------|
G|---------------------------------------------------------5--|
D|-5-------8-------4-----------------------8-------4-------3--|
A|-3-------6-------2-------4-------3-------6-------2----------|
E|---0-0-0---0-0-0---0-0-0-2-0-0-0-1-0-0-0---0-0-0---0-0-0----|
     * * *   * * *   * * *   * * *   * * *   * * *   * * *

e|------------------------------------------------|
B|-----------------------------------------3---3--|
G|---------------------------------------6-2-5-2--|
D|-------5-------8-------4---------------4---3----|
A|-------3-------6-------2-------4----------------|
E|-0-0-0---0-0-0---0-0-0---0-0-0-2-0-0-0----------|
   * * *   * * *   * * *   * * *   * * *

e|------------------------------------------------------------|
B|------------------------------------------------------------|
G|---------------------------------------------------------5--|
D|-5-------8-------4-----------------------8-------4-------3--|
A|-3-------6-------2-------4-------3-------6-------2----------|
E|---0-0-0---0-0-0---0-0-0-2-0-0-0-1-0-0-0---0-0-0---0-0-0----|
     * * *   * * *   * * *   * * *   * * *   * * *   * * *

e|------------------------------------------------|
B|-----------------------------------------3---3--|
G|---------------------------------------6-2-5-2--|
D|-------5-------8-------4---------------4---3----|
A|-------3-------6-------2-------4----------------|
E|-0-0-0---0-0-0---0-0-0---0-0-0-2-0-0-0----------|
   * * *   * * *   * * *   * * *   * * *

e|----------------------------------------------------------|
B|---------------------3-3-3-3---------------------4-4-4-4--|
G|-6-6-6-6-6-6-5-5-5-5-2-2-2-2-6-6-6-6-6-6-5-5-5-5-3-3-3-3--|
D|-4-4-4-4-4-4-3-3-3-3---------4-4-4-4-4-4-3-3-3-3----------|
A|----------------------------------------------------------|
E|----------------------------------------------------------|

e|------------------------------------------------------|
B|---------------------3-3-3-3--------------------------|
G|-6-6-6-6-6-6-5-5-5-5-2-2-2-2--------------------------|
D|-4-4-4-4-4-4-3-3-3-3---------5-4---------5-4----------|
A|-----------------------------3-2---------3-2----------|
E|---------------------------------0-0-0-0-----0-0-0-0--|
                                   * * * *     * * * *

e|----------------------------------------------------------|
B|---------------------3-3-3-3---------------------4-4-4-4--|
G|-6-6-6-6-6-6-5-5-5-5-2-2-2-2-6-6-6-6-6-6-5-5-5-5-3-3-3-3--|
D|-4-4-4-4-4-4-3-3-3-3---------4-4-4-4-4-4-3-3-3-3----------|
A|----------------------------------------------------------|
E|----------------------------------------------------------|

e|------------------------------------------------------|
B|---------------------3--------------------------------|
G|-6-----------5-------2--------------------------------|
D|-4-----------3---------------5-4---------5-4----------|
A|-----------------------------3-2---------3-2----------|
E|---------------------------------0-0-0-0-----0-0-0-0--|
                                   * * * *     * * * *

e|------------------------------------------------------------|
B|------------------------------------------------------------|
G|---------------------------------------------------------5--|
D|-5-------8-------4-----------------------8-------4-------3--|
A|-3-------6-------2-------4-------3-------6-------2----------|
E|---0-0-0---0-0-0---0-0-0-2-0-0-0-1-0-0-0---0-0-0---0-0-0----|
     * * *   * * *   * * *   * * *   * * *   * * *   * * *

e|------------------------------------------------|
B|-----------------------------------------3---3--|
G|---------------------------------------6-2-5-2--|
D|-------5-------8-------4---------------4---3----|
A|-------3-------6-------2-------4----------------|
E|-0-0-0---0-0-0---0-0-0---0-0-0-2-0-0-0----------|
   * * *   * * *   * * *   * * *   * * *

e|------------------------------------------------------------|
B|------------------------------------------------------------|
G|---------------------------------------------------------5--|
D|-5-------8-------4-----------------------8-------4-------3--|
A|-3-------6-------2-------4-------3-------6-------2----------|
E|---0-0-0---0-0-0---0-0-0-2-0-0-0-1-0-0-0---0-0-0---0-0-0----|
     * * *   * * *   * * *   * * *   * * *   * * *   * * *

e|------------------------------------------------|
B|-----------------------------------------3---3--|
G|---------------------------------------6-2-5-2--|
D|-------5-------8-------4---------------4---3----|
A|-------3-------6-------2-------4----------------|
E|-0-0-0---0-0-0---0-0-0---0-0-0-2-0-0-0----------|
   * * *   * * *   * * *   * * *   * * *

e|----------------------------------------------------------|
B|---------------------3-3-3-3---------------------4-4-4-4--|
G|-6-6-6-6-6-6-5-5-5-5-2-2-2-2-6-6-6-6-6-6-5-5-5-5-3-3-3-3--|
D|-4-4-4-4-4-4-3-3-3-3---------4-4-4-4-4-4-3-3-3-3----------|
A|----------------------------------------------------------|
E|----------------------------------------------------------|

e|------------------------------------------------------|
B|---------------------3-3-3-3--------------------------|
G|-6-6-6-6-6-6-5-5-5-5-2-2-2-2--------------------------|
D|-4-4-4-4-4-4-3-3-3-3---------5-4---------5-4----------|
A|-----------------------------3-2---------3-2----------|
E|---------------------------------0-0-0-0-----0-0-0-0--|
                                   * * * *     * * * *

e|----------------------------------------------------------|
B|---------------------3-3-3-3---------------------4-4-4-4--|
G|-6-6-6-6-6-6-5-5-5-5-2-2-2-2-6-6-6-6-6-6-5-5-5-5-3-3-3-3--|
D|-4-4-4-4-4-4-3-3-3-3---------4-4-4-4-4-4-3-3-3-3----------|
A|----------------------------------------------------------|
E|----------------------------------------------------------|

e|------------------------------------------------------|
B|---------------------3--------------------------------|
G|-6-----------5-------2--------------------------------|
D|-4-----------3---------------5-4---------5-4----------|
A|-----------------------------3-2---------3-2----------|
E|---------------------------------0-0-0-0-----0-0-0-0--|
                                   * * * *     * * * *

e|-------------------------------------------------|
B|-------------------------------------------------|
G|-----2-2-2-2-----2-2-2-2-------------------------|
D|-5-4-0-0-0-0-5-4-0-0-0-0-5-4---------5-4---------|
A|-3-2---------3-2---------3-2---------3-2---------|
E|-----------------------------0-0-0-0-----0-0-0-0-|
                               * * * *     * * * *

e|-------------------------------------------------|
B|-------------------------------------------------|
G|-----2-2-2-2-------------------------------------|
D|-5-4-0-0-0-0-5-4-5-5-5-5-5-4---------5-4---------|
A|-3-2---------3-2-3-3-3-3-3-2---------3-2---------|
E|-----------------------------0-0-0-0-----0-0-0-0-|
                               * * * *     * * * *

e|-------------------------------------------------|
B|-------------------------------------------------|
G|-----2-2-2-2-----5-5-5-5-------------------------|
D|-5-4-0-0-0-0-5-4-3-3-3-3-5-4---------5-4---------|
A|-3-2---------3-2---------3-2---------3-2---------|
E|-----------------------------0-0-0-0-----0-0-0-0-|
                               * * * *     * * * *

e|--------------------------|
B|--------------------------|
G|-----2-2-2-2--------------|
D|-5-4-0-0-0-0-5-4-5-5-5-5--|
A|-3-2---------3-2-3-3-3-3--|
E|--------------------------|

e|--------------------------------|
B|--------------------------------|
G|--------------------------------|
D|---6-6-6-6-6-6---------3-3-3-3--|
A|-5-4-4-4-4-4-4-5-5-5-5-1-1-1-1--|
E|-3-------------3-3-3-3----------| x2

e|--------------------------------------------------------|
B|--------------------------------------------------------|
G|--------------------------------------------------------|
D|---6-6-6-6-6-6---------3-3-3-3-5-4---------5-4----------|
A|-5-4-4-4-4-4-4-5-5-5-5-1-1-1-1-3-2---------3-2----------|
E|-3-------------3-3-3-3-------------0-0-0-0-----0-0-0-0--|
                                     * * * *     * * * *

e|--------------------------------|
B|--------------------------------|
G|--------------------------------|
D|---6-6-6-6-6-6---------3-3-3-3--|
A|-5-4-4-4-4-4-4-5-5-5-5-1-1-1-1--|
E|-3-------------3-3-3-3----------| x2

e|------------------------------------------------|
B|------------------------------------------------|
G|------------------------------------------------|
D|---6-6-6-6-6-6---------3-3-3-3-5-4---------5-4--|
A|-5-4-4-4-4-4-4-5-5-5-5-1-1-1-1-3-2---------3-2--|
E|-3-------------3-3-3-3-------------0-0-0-0------|
                                     * * * *
            
Submit corrections

comments powered by Disqus
↑ Back to top | Napalm Death Tabs for Vegetative State. Lyrics for acoustic guitar and electric guitar. Tablatures and chords are parodies/interpretations of the original songs. You may use it for private study, scholarship, research or language learning purposes only