» » »

Twist The Knife Slowly Tabs (ver.1)

Artists:  A B C D E F G H I J K L M N O P Q R S T U V W X Y Z # 

Twist The Knife Slowly Tabs (ver.1)

Napalm Death
Rating:
0/5 (0 votes)

Hard to play? Try these video lessons and learn fast.
                Napalm Death
Fear, Emptiness, Despair
Twist The Knife (Slowly)

Copyright (c) Earache Records 1994
Version 1.0 - 31.12.06



.  - palm mute           /  - slide up to
\  - slide down to       ~  - vibrato
h  - hammer on           b  - Bend
p  - pull off            Suffixes for bend
t  - tap                 f  - full bend    h - half bend
ph - pinched harmonic    q  - quarter bend t - tap bend
*  - see comment         ^  - Hold bend    r release bend
x  - Dead Note           ~  - vibrato bend
,  - slight palm mute    () - ghost note, sustained note
"  - tremolo note        <> - Trill

Tuning is C# standart



Intro x1
|L          x5|           x5|
|-------------|-------------|
|-------------|-------------|
|-------------|-------------|
|-------------|-------------|
|-ph-ph-ph-ph-|-ph-ph-ph-ph-|
|-0--0--0--0--|-0--0--0--0--|
|             |             |
|R            |             |
|-------------|-------------|
|-------------|-------------|
|-------------|-------------|
|-------------|-------------|
|-------------|-ph-ph-ph-ph-|
|-------------|-0--0--0--0--|

Riff A x4
|-------------------------------------------|
|-------------------------------------------|
|-------------------------------------------|
|-----------5-4-6-5-4-----------5-----------|
|-5-4-6-5-4-3-2-4-3-2-5-4-6-5-4-3-4-4-4-4---|
|-3-2-4-3-2-----------3-2-4-3-2---2-2-2-2---|
                                  . . . .

Riff B x4
|---------------------------------|
|---------------------------------|
|---------------------------------|
|-3-------3-----3-----6-----5-----|
|-3-------3-----3-----4-5-4-3-4-3-|
|-1-000-0-1-0-0-1-0-3---3-2---2-1-|
    ... .   . .   . .

Riff A x4
Roff B x4

Riff C x2
(*First time this riff is played this chord replaced
  by a 0 on the 6th string)
|--------------------------------------------------|
|--------------------------------------------------|
|--------------------------------------------------|
|-------*------------------------------------------|
|---8---6-8-----8---6-8-----8---6-8---6-8---6-8----|
|-0-6-0-4-6---0-6-0-4-6---0-6-0-4-6-0-4-6-0-4-6----|


Part C x2
|L
|-6-6-6-6-6-6-6-6-6-6-6-6-6-6-6-6-6-6-6-6-6-6-6-6--|
|-x-x-x-x-x-x-x-x-x-x-x-x-x-x-x-x-x-x-x-x-x-x-x-x--|
|-4-4-4-4-4-4-4-4-4-4-4-4-4-4-4-4-4-4-4-4-4-4-4-4--|
|--------------------------------------------------|
|--------------------------------------------------|
|--------------------------------------------------|
|
|R
|--------------------------------------------------|
|--------------------------------------------------|
|--------------------------------------------------|
|--------------------------------------------------|
|---8---6-8-----8---6-8-----8---6-8---6-8---6-8----|
|-0-6-0-4-6---0-6-0-4-6---0-6-0-4-6-0-4-6-0-4-6----|


Part D x1
|L (Riff D)
|------------------------------------------------------------|
|------------------------------------------------------------|
|------------------------------------------------------------|
|-------------3-----------3-4-3-------------3---4-3----------|
|-----2-------1-----------1-2-1-----2-------1---2-1-4-3-2-5--|
|-0-0-0-000-0-----0-000-0-------0-0-0-000-0---------2-1-0-3--|
| . .   ... .     . ... .       . .   ... .
|
|R
|------------------------------------------------------------|
|------------------------------------------------------------|
|------------------------------------------------------------|
|-------------------------------------------3---4-3----------|
|-----2-----------------------------2-------1---2-1-4-3-2-5--|
|-0-0-0-------------------------0-0-0-000-0---------2-1-0-3--|
  . .                           . .   ... .

Riff D x2

Riff E x4
|L                            |1,3  |2,4   |
|-----------------------------|-----|------|
|-----------------------------|-----|------|
|-----------------------------|-----|------|
|-------------4---------6-----|-----|------|
|-4-----4-----2-2-3-----4-----|-5/6-|-6\5--|
|-2-000-2-000---0-1-000---000-|-3/4-|-4\3--|
|   ...   ...       ...   ... |     |      |
|R                            |     |      |
|-----------------------------|-----|------|
|-----------------------------|-----|------|
|-----------------------------|-----|------|
|-------------4---------6-----|-----|------|
|-4-----4-----2-2-3-----4-----|-----|------|
|-2-000-2-000---0-1-000---000-|-4p0-|-4p0--|
    ...   ...       ...   ...

Riff C x2 (mind the *)
Part C x2
Part D x1
Riff D x2
Riff E x4

Intro  x1
Riff A x4
Riff B x4


END
            
Hard to play? Try these video lessons and learn fast. | Correct




comments powered by Disqus
↑ Back to top | Tablatures and chords are parodies/interpretations of the original songs. You may use it for private study, scholarship, research or language learning purposes only