» » »

Napalm Death, Thanks For Nothing Tabs (ver.1)

Artists:  A B C D E F G H I J K L M N O P Q R S T U V W X Y Z # 

Thanks For Nothing Tabs (ver.1)

Napalm Death Tabs
Rating:
0/5 (0 votes)
Hard to play? Try these video lessons and learn fast.
                As recorded by Napalm Death
(from the Album Enemy of the Music Business)

Music by Napalm Death


Riff A					     Riff B	
C#|------------------|------------------|-------------|-------------|
G#|------------------|------------------|-------------|-------------|
E |------------------|------------------|-------------|-------------|
B |-8-8-8x-9---------|------------------|-6---6-4--6--|-7---7-6--4--|
F#|-6-6-6x-7---9-7-9-|-10-9-9x-9-7-9-2--|-4---4-2--4--|-5---5-4--2--|
C#|------------7-5-7-|-8--7-7x-7-5-7-0--|-------------|-------------|
               Riff C       Riff D
|-------------|------------|-------------|-------------|-------------|
|-------------|------------|-------------|-------------|-------------|
|-------------|------------|-------------|-------------|-------------|
|-6---6-4--6--|-7-7-7------|-------------|-------------|-------------|
|-4---4-2--4--|-5-5-5------|-6---6-8--6--|-------6--8--|-8---8-6--8--|
|-------------|------------|-------------|-2---2-------|-------------|
              Riff E                        Riff F
|------------|---------------|-------------|-------------|-------------|
|------------|---------------|--------8----|-------------|-------------|
|------------|---------------|----9-9-9----|-------------|-------------|
|------------|-----------6-6-|-6--0-0-0----|-------------|----6-6-6----|
|------11----|-2--8-8-8--4-4-|-4--7-7-7----|-2--8-8-8----|-2--4-4-4----|
|-2----------|-0--6-6-6------|-------------|-0--6-6-6----|-0-----------|
                               Riff G
|---------------|-------------|-------------------|-------------------|
|---------------|--------8----|-------------------|-------------------|
|---------------|----9-9-9----|-10-10-10-10-10----|-10-10-10-10-10----|
|-----------6-6-|-6--0-0-0----|-0--0--0--0--0-----|-0--0--0--0--0-----|
|-2--8-8-8--4-4-|-4--7-7-7----|-8--8--8--8--8-----|-8--8--8--8--8-----|
|-0--6-6-6------|-------------|-------------------|-------------------|

|----------------|----------------|-------------------|-------------------|
|----------------|----------------|-------------------|-8--8--8--8--8-----|
|-7-7-7-7-7--10--|-7-7-7-7-7--10--|-10-10-10-10-10----|-10-10-10-10-10----|
|-0-0-0-0-0--0---|-0-0-0-0-0--0---|-0--0--0--0--0-----|-0--0--0--0--0-----|
|-5-5-5-5-5--8---|-5-5-5-5-5--8---|-8--8--8--8--8-----|-8--8--8--8--8-----|
|----------------|----------------|-------------------|-------------------|

|----------------|----------------|
|----------------|----------------|
|-7-7-7-7-7--10--|-7-7-7-7-7--10--|
|-0-0-0-0-0--0---|-0-0-0-0-0--0---|
|-5-5-5-5-5--8---|-5-5-5-5-5--8---|
|----------------|----------------|

SONG STRUCTURE:
Riff A ( x 8 times)
Riff B + Riff C
Riff A ( x 8 times)
Riff B ( x 2 times)
Riff D ( x 2 times)
Riff B ( x 2times)
Riff C
Riff E ( x 6 times)
Riff F ( x 2 times)
Riff B + Riff C ( x 2 times)

END OF SONG
            

comments powered by Disqus
↑ Back to top | Napalm Death Tabs for Thanks For Nothing. Lyrics for acoustic guitar and electric guitar. Tablatures and chords are parodies/interpretations of the original songs. You may use it for private study, scholarship, research or language learning purposes only