>
 >
Suffer Little Children 1

Suffer Little Children 1 Guitar Tabs

Napalm Death - Suffer Little Children 1 chords, tabs, tablatures, lyrics

Guitar lessons | Add/correct | Request | Top 50 tabs Artists:  A B C D E F G H I J K L M N O P Q R S T U V W X Y Z 0-9

Suffer Little Children 1 Guitar Tabs – Napalm Death

CD, Sheet music, Poster

Do you like Suffer Little Children 1? Share with your friends now
TabsTabs v2
Napalm Death's Suffer the Children
		     as plagarized by Mike Ng
4/4 TIME
detune down one whole step (E=D and so forth)
VERSES 1 AND 2/INTRO:  PLAY 3X

D| |----------------------------------------|------------------------------|
A|o|----------------------------------------|------------------------------|
F| |----------------------------------------|------------------------------|
C| |---------------------3------------------|--6----------------3--4-------|
G|o|--3------------------1------------------|--4----------------1--2--6--5-|
D| |--1---0--0--0--0--0------0--0--0--0--0--|-----0--0--0--0--0-------4--3-|
	P.M............	    P.M.............	  P.M..........

D--------------------------------------|---------------------------------| |
A--------------------------------------|---------------------------------|o|
F--------------------------------------|---------------------------------| |
C---------------------3----------------|--6-----------------9--8---------| |
G--3------------------1----------------|--4-----------------7--6--5--6---|o|
D--1---0--0--0--0--0-----0--0--0--0--0-|-----0--0--0--0--0--------3--4---| |
     P.M............	P.M..........	    P.M............

END OF INTRO AND VERSES 1 AND 2

THEN PLAY THIS 4X ON THE 4TH TIME PLAY LAST BAR AGAIN: DOUBLE TIMED
D| |---------------------------------|------------------------------|
A|o|---------------------------------|------------------------------|
F| |---------------------------------|------------------------------|
C| |---------------------------------|------------------------------|
G|o|--3------------------------------|--3---------------5--6--5--6--|
D| |--1--0-0-0-0-0-0-0-0-0-0-0-0-0-0-|--1--0-0-0-0-0-0--3--4--3--4--|
	P.M..........................	  P.M..........
THESE ARE DOUBLE-PICKED 16TH NOTES

D---------------------------------|---------------------------------| |
A---------------------------------|---------------------------------|o|
F---------------------------------|---------------------------------| |
C---------------------------------|---------------------------------| |
G--3------------------------------|--3-----------------6--5--6--5---|o|
D--1--0-0-0-0-0-0-0-0-0-0-0-0-0-0-|--1---0-0-0-0-0-0---4--3--4--3---| |
     P.M..........................	P.M..........

THEN PLAY THIS PART 4X
D| |------------------------|--------------------------| |
A|o|------------------------|--------------------------|o|
F| |------------------------|--------------------------| |
C| |----------6----6--------|-------9------------------| |
G|o|--2-------4----4--5--6--|--2----7----8----8--5--6--|o|
D| |--0----0----------3--4--|--0---------6----6--3--4--| |

SWITCH TO 3/4 TIME AND PLAY THIS:

D-------------------|-------------------|
A-------------------|-------------------|
F-------------------|-------------------|
C-------------------|-------------------|
G-----------4-------|-----------4-------|
D--0--0--1-----3----|--0--0--1-----3----|

VERSES 3 AND 4 PLAY THIS RIFF 8X, PLAY THIS RIFF 4X FOR VERSE 5

D| |------------------------| |
A|o|------------------------|o|
F| |------------------------| |
C| |------------6-----------| |
G|o|--2----3----4----5/6----|o|
D| |--0----1---------3/4----| |

BETWEEN VERSES 3 AND 4 PLAY THIS: DOUBLE-TIMED
DOUBLE PICKED 16THS

D| |---------------------------------|---------------------------------|
A|o|---------------------------------|---------------------------------|
F| |---------------------------------|---------------------------------|
C| |---------------------------------|-----------------8-8-8-8-8-8-8-8-|
G|o|-------------------------6-6-6-6-|-5-5-5-5-5-5-5-5-----------------|
D| |-7-7-7-7-7-7-7-7-7-7-7-7---------|---------------------------------|

D---------------------------------|----------------------------------| |
A---------------------------------|----------------------------------|o|
F---------------------------------|----------------------------------| |
C---------------------------------|----------------------------------| |
G-------------------------6-6-6-6-|-5-5-5-5-5-5-5-5------------------|o|
D-7-7-7-7-7-7-7-7-7-7-7-7---------|-----------------4-4-4-4-4-4-4-4--| |

D| |---------------------------------|---------------------------------|
A|o|---------------------------------|---------------------------------|
F| |---------------------------------|---------------------------------|
C| |---------------------------------|---------------------------------|
G|o|---------------------------------|-7-7-7-7-7-7-7-7-7-7-7-7-7-7-7-7-|
D| |-6-6-6-6-6-6-6-6-6-6-6-6-4-4-4-4-|---------------------------------|

D---------------------------------|--------------------------------| |
A---------------------------------|--------------------------------|o|
F---------------------------------|--------------------------------| |
C---------------------------------|--------------------------------| |
G---------------------------------|---------8-8-8-8-8-8-8-7-7-7-7--|o|
D-6-6-6-6-6-6-6-6-6-6-6-6-4-4-4-4-|-4-4-4-4------------------------| |

PLAY THIS PART AFTER THE 4TH VERSE TOO AND PLAY THE FINAL BAR 2X

END THE INTERLUDE BY PLAYING THIS :
D----------------|--------------------|
A----------------|--------------------|
F----------------|--------------------|
C----------------|----(2)-------------|
G--2-------------|----(2)-------------|
D--0-------------|----(0)-------------|

THEN PLAY THIS PART 4X: (PLAY 2X AS VERSE 5)

D| |----------------------|--------------------------|
A|o|----------------------|--------------------------|
F| |----------------------|--------------------------|
C| |--------------3-------|--------------------------|
G|o|--------------1-------|--------------5/6--3------|
D| |--0--0--0--0----------|--0--0--0--0--3/4--1------|
     P.M........	   P.M..........

D----------------------|--------------------------| |
A----------------------|--------------------------|o|
F----------------------|--------------------------| |
C--------------3-------|--------------------------| |
G--------------1-------|-----2--------4\3--4------|o|
D--0--0--0--0----------|--0--0-----0--2\1--2------| |
  P.M..........		P.M.	  P.M.

THEN PLAY THIS 2X: THEN DO VERSE 5, THEN DO THIS 4 TIMES

D| |--------------------|-----------------|--------------------|
A|o|--------------------|-----------------|--------------------|
F| |--------------------|-----------------|--------------------|
C| |--------------3-----|--4------5-------|--------------3-----|
G|o|--------------1-----|--2------3-------|--------------1-----|
D| |--0--0--0--0--------|------------3----|--0--0--0--0--------|
    P.M.........		   B1/2	    P.M........

D------------------| |
A------------------|o|
F------------------| |
C--4------5--------| |
G--2------3--------|o|
D-------------3----| |
	     B1/2

THAT'S IT NO SOLOS, NO MORE NOTHIN'.

KEY:
P.M.=PALM MUTE		B1/2=BEND UP 1/2 STEP

| |			/=SLIDE UP
|o|
| |=REPEAT		\=SLIDE DOWN
| |
|o|
| |			^=HAMMER ON/PULL OFF


Mike Ng





Comments


Popular Napalm Death tabs & chords
Nazi Punks Fuck Off 2 Bass Tabs
You Suffer Bass Tabs
Inside The Torn Apart Tabs
M.A.D Tabs
Next Of Kin To Chaos Tabs
Reflect On Conflict Tabs
Scum 1 Tabs
The Lifeless Alarm Tabs
Ulterior Exterior Tabs
Volume Of Neglect Tabs


Song lyrics



↑ Back to top | Tablatures and chords are parodies/interpretations of the original songs. You may use it for private study, scholarship, research or language learning purposes only
© 2014 AZChords.com Contact us | Privacy policy | DMCA | Add/correct tabs | Request tabs | Top 50 tabs