» » »

Scum Tabs (ver.2)

Artists:  A B C D E F G H I J K L M N O P Q R S T U V W X Y Z # 

Scum Tabs (ver.2)

Napalm Death
Rating:
0/5 (0 votes)

Hard to play? Try these video lessons and learn fast.
                Scum by Napalm Death

Tuning: It should really be played in Eb but drop D sounds great anyway


Bass Intro

Guitar Intro Riff
E|------------------------------------
B|------------------------------------
G|------------------------------------
D|-0-0-0-0-1--0-0-0-0-4-3-------------
A|-0-0-0-0-1--0-0-0-0-4-3-------------
D|-0-0-0-0-1--0-0-0-0-4-3-------------

E|------------------------------------
B|------------------------------------
G|------------------------------------
D|-0-0-0-0-1--0-0-0-0-----------------
A|-0-0-0-0-1--0-0-0-0-----------------
D|-0-0-0-0-1--0-0-0-0-3~--------------  play whole thing twice

Next Part
E|------------------------------------       
B|------------------------------------
G|------------------------------------
D|-00-3-2-0-3-2-0-6-------------------
A|-00-3-2-0-3-2-0-6-------------------
D|-00-3-2-0-3-2-0-6------------------- x 4

E|------------------------------------
B|------------------------------------
G|------------------------------------
D|-00-3-2-0-3-2-0-1-------------------
A|-00-3-2-0-3-2-0-1-------------------
D|-00-3-2-0-3-2-0-1------------------- x 4
repeat both bars again


 Heavy mental fast bit
E|------------------------------------
B|------------------------------------
G|------------------------------------
D|-2-0-3------------------------------
A|-2-0-3------------------------------  x however many
D|-2-0-3------------------------------


Build up bit
E|------------------------------------
B|------------------------------------
G|------------------------------------
D|-0-0-2-0-0-3-0-0-5-0-0-6/5/6--------
A|-0-0-2-0-0-3-0-0-5-0-0-6/5/6--------
D|-0-0-2-0-0-3-0-0-5-0-0-6/5/6--------

E|------------------------------------
B|------------------------------------
G|------------------------------------
D|-0-0-2-0-0-3-0-0-5-0-0-7/6/7--------
A|-0-0-2-0-0-3-0-0-5-0-0-7/6/7--------
D|-0-0-2-0-0-3-0-0-5-0-0-7/6/7--------

E|------------------------------------
B|------------------------------------
G|------------------------------------
D|-0-0-2-0-0-3-0-0-5-0-0-6/5/6--------
A|-0-0-2-0-0-3-0-0-5-0-0-6/5/6--------
D|-0-0-2-0-0-3-0-0-5-0-0-6/5/6--------

E|------------------------------------
B|------------------------------------
G|------------------------------------
D|-0-0-2-0-0-3-0-0-5-0-0--------------
A|-0-0-2-0-0-3-0-0-5-0-0--------------
D|-0-0-2-0-0-3-0-0-5-0-0-7~-----------  x build up bit by 2
            
Hard to play? Try these video lessons and learn fast. | Correct




comments powered by Disqus
↑ Back to top | Tablatures and chords are parodies/interpretations of the original songs. You may use it for private study, scholarship, research or language learning purposes only