» » »

Napalm Death, Scum Bass tabs (ver.1)

Artists:  A B C D E F G H I J K L M N O P Q R S T U V W X Y Z # 

Scum Bass tabs (ver.1)

Napalm Death Tabs
 Rating:
4/5 (4 votes)
Scum lessons Tabs too difficult? Try these video lessons and learn fast
                Scum                                       
Napalm Death



                E  E  E  E  H           E  E  E  E  Q    Q     
F#||-------||------------------------|------------------------|
C#||-------||*-----------------------|------------------------|
G#||-------||*-----------------------|------------------------|
D#||-------||---0--0--0--0--1--------|--0--0--0--0--4----3----|


  E  E  E  E  H           E  E  E  E  H             E  E  E  E  H         
-----------------------|------------------------||-----------------------|
-----------------------|-----------------------*||-----------------------|
-----------------------|-----------------------*||-----------------------|
--0--0--0--0--1--------|--0--0--0--0--1---------||--0--0--0--0--1--------|


  E  E  E  E  Q    Q       E  E  E  E  H           E  E  E  E  H         
------------------------|-----------------------|-----------------------|
------------------------|-----------------------|-----------------------|
------------------------|-----------------------|-----------------------|
--0--0--0--0--4----3----|--0--0--0--0--1--------|--0--0--0--0--1--------|


  E  E  E  E  H           E  E  E  E  Q    Q       E  E  E  E  H         
-----------------------|------------------------|-----------------------|
-----------------------|------------------------|-----------------------|
-----------------------|------------------------|-----------------------|
--0--0--0--0--1--------|--0--0--0--0--4----3----|--0--0--0--0--1--------|


                            |--3--|  |--3--|  |--3--|          
  E  E  E  E  H             E  E  E  E  E  E  E  E  E  Q     4x
-----------------------||------------------------------------||
-----------------------||*----------------------------------*||
-----------------------||*----------------------------------*||
--0--0--0--0--1--------||---0--L--0--3--0--0--4--0--0--5-----||


   |--3--|  |--3--|  |--3--|             |--3--|  |--3--|  |--3--|          
   E  E  E  E  E  E  E  E  E  Q     4x   E  E  E  E  E  E  E  E  E  Q     4x
------------------------------------||------------------------------------||
*----------------------------------*||*----------------------------------*||
*----------------------------------*||*----------------------------------*||
---0--L--0--3--0--0--2--0--0--1-----||---0--L--0--3--0--0--4--0--0--5-----||


   |--3--|  |--3--|  |--3--|          
   E  E  E  E  E  E  E  E  E  Q     3x
------------------------------------||
*----------------------------------*||
*----------------------------------*||
---0--L--0--3--0--0--2--0--0--1-----||


  |--3--|  |--3--|  |--3--|                                          
  E  E  E  E  E  E  E  E  E  Q    W                W                 
--------------------------------------------------------------------|
--------------------------------------------------------------------|
--------------------------------------------------------------------|
--0--L--0--3--0--0--2--0--0--1----L----------------L----------------|


    E  E  E  E  H           E  E  E  E  Q    Q       E  E  E  E  H         
|------------------------|------------------------|-----------------------|
|*-----------------------|------------------------|-----------------------|
|*-----------------------|------------------------|-----------------------|
|---0--0--0--0--1--------|--0--0--0--0--4----3----|--0--0--0--0--1--------|


  E  E  E  E  H         4x  E  E  E  E  W                Q     
------------------------||------------------------------------|
-----------------------*||------------------------------------|
-----------------------*||------------------------------------|
--0--0--0--0--1---------||--0--0--0--0--1----------------L----|


  E  E  Q    E  E  Q       E  E  Q    E  E  Q         E  E  Q    E  E  Q     4x
------------------------|------------------------||--------------------------||
------------------------|------------------------||*------------------------*||
------------------------|------------------------||*------------------------*||
--5--3--6----5--3--6----|--5--3--6----5--3--6----||---5--3--6----5--3--6-----||


   E  E  Q    E  E  Q          E  E  Q    E  E  Q     4x
--------------------------||--------------------------||
*------------------------*||*------------------------*||
*--------3----------3----*||*------------------------*||
---5--3-------5--3--------||---5--3--6----5--3--6-----||


  E  E  Q    E  E  Q     
------------------------|
------------------------|
--------3----------3----|
--5--3-------5--3-------|


  E  E  Q    E  E  W                W                Q       W                 
----------------------------------------------------------|-------------------|
----------------------------------------------------------|-------------------|
--------3----------3----------------L---------------------|-------------------|
--5--3-------5--3------------------------------------0----|--L----------------|


  W                   W                   W                   W                 
-------------------|-------------------|-------------------|-------------------|
-------------------|-------------------|-------------------|-------------------|
-------------------|-------------------|-------------------|-------------------|
--L----------------|--L----------------|--L----------------|--0----------------|


  W                   W                   W                 
-------------------|-------------------|-------------------|
-------------------|-------------------|-------------------|
-------------------|-------------------|-------------------|
--L----------------|--L----------------|--L----------------|


  E  E  E  E  E  E  E  E     E  E  E  Q     E   Q     
--------------------------|--------------------------|
--------------------------|--------------------------|
--------------------------|--------------------------|
--0--0--2--0--0--3--0--0--|--5--0--0--6S----5S--6----|


  E  E  E  E  E  E  E  E     E  E  E  Q     E   Q     
--------------------------|--------------------------|
--------------------------|--------------------------|
--------------------------|--------------------------|
--0--0--2--0--0--3--0--0--|--5--0--0--7S----6S--7----|


  E  E  E  E  E  E  E  E     E  E  E  Q     E   Q     
--------------------------|--------------------------|
--------------------------|--------------------------|
--------------------------|--------------------------|
--0--0--2--0--0--3--0--0--|--5--0--0--6S----5S--6----|


  E  E  E  E  E  E  E  E     E  E  E  Q     E   Q     
--------------------------|--------------------------|
--------------------------|--------------------------|
--------------------------|--------------------------|
--0--0--2--0--0--3--0--0--|--5--0--0--7S----6S--7----|


  E  E  E  E  E  E  E  E     E  E  E  Q.     Q       E  E  E  E  E  E  E  E   
--------------------------|-----------------------|--------------------------|
--------------------------|-----------------------|--------------------------|
--------------------------|-----------------------|--------------------------|
--0--0--2--0--0--3--0--0--|--5--0--0--6------L----|--0--0--2--0--0--3--0--0--|


  E  E  E  Q.     Q       E  E  E  E  E  E  E  E     E  E  E  Q.     Q     
-----------------------|--------------------------|-----------------------|
-----------------------|--------------------------|-----------------------|
-----------------------|--------------------------|-----------------------|
--5--0--0--7------L----|--0--0--2--0--0--3--0--0--|--5--0--0--6------L----|


  E  E  E  E  E  E  E  E     E  E  E  Q.     Q    H         
--------------------------|--------------------------------|
--------------------------|--------------------------------|
--------------------------|--------------------------------|
--0--0--2--0--0--3--0--0--|--5--0--0--7------L----L--------|


  E  E  Q    E  E  Q       E  E  Q    E  E  Q         E  E  Q    E  E  Q     4x
------------------------|------------------------||--------------------------||
------------------------|------------------------||*------------------------*||
------------------------|------------------------||*------------------------*||
--5--3--6----5--3--6----|--5--3--6----5--3--6----||---5--3--6----5--3--6-----||


   E  E  Q    E  E  Q          E  E  Q    E  E  Q     4x
--------------------------||--------------------------||
*------------------------*||*------------------------*||
*--------3----------3----*||*------------------------*||
---5--3-------5--3--------||---5--3--6----5--3--6-----||


   E  E  Q    E  E  Q       
--------------------------||
*------------------------*||
*--------3----------3----*||
---5--3-------5--3--------||




Duration Legend
---------------
W - whole
H - half
Q - quarter
E - 8th
S - 16th
T - 32nd
X - 64th
. - note dotted
|-n-|  - n-tuplets


Tablature Legend
----------------
L - tied note
x - dead note
g - grace note
(n) - ghost note
> - accentuded note
NH - natural harmonic
AH - artificial harmonic
TH - tapped harmonic
SH - semi harmonic
PH - pitch harmonic
h - hammer on
p - pull off
b - bend
br - bendRelease
pb - preBend
pbr - preBendRelease
brb - bendReleaseBend
\n/ - tremolo bar dip
\n - tremolo bar dive
-/n - tremolo bar Release up
/n\ - tremolo bar inverted dip
/n - tremolo bar return
-\n - tremolo bar Release down
S - shift slide
s - legato slide
/ -  slide into from below or out of upwards
\ -  slide into from above or out of downwards
~ - vibrato
W - wide vibrato
tr - trill
TP - tremolo picking
T - tapping
S - slap
P - pop
< - fade in
^ - brush up
v - brush down
            
Submit corrections

comments powered by Disqus
↑ Back to top | Napalm Death Bass for Scum. Lyrics for acoustic guitar and electric guitar. Tablatures and chords are parodies/interpretations of the original songs. You may use it for private study, scholarship, research or language learning purposes only