» » »

Napalm Death, Scum Tabs (ver.1)

Artists:  A B C D E F G H I J K L M N O P Q R S T U V W X Y Z # 

Scum Tabs (ver.1)

Napalm Death Tabs
 Rating:
4/5 (4 votes)
Scum lessons Tabs too difficult? Try these video lessons and learn fast
                        
        This song is played drop D     VERSE
        E|------------------------------------------------------------
        B|------------------------------------------------------------
        G|------------------------------------------------------------
        D|------------------------------------------------------------
        A|------0-0-0-0-1---0-0-0-0-4-3--0-0-0-0-1---0-0-0-0-3b-------        X2
        D|------0-0-0-0-1---0-0-0-0-4-3--0-0-0-0-1---0-0-0-0-3b--------
-              ^           ^            ^           ^
              -In live version where ^ is play 1 on the d string sounds great fast
        FAST CHORUS
        E|----------------------           E|---------------------------
        B|-----------------------          B|---------------------------
        G|-----------------------          G|---------------------------
        D|-----------------------  X4      D|---------------------------      X4
        A|------0-2-323--0-0-6---          A|--------0-2-323-0-0-1------
        D|------0-2-323--0-0-6---          D|--------0-2-323-0-0-1------
        
        PLAY THIS IN THE HEAVY PART
       
 D|----------
 A|----3-2-4-   X4 (that u can hear) then I didn't count how many so I just go crazy!
 D|----3-2-4-

        

        This bit sounds kool play it 4 times before the drumming comes in properly then play it 8 

        D|----------------------------------------------------
        A|---0-0-1-0-0-2-0-0-3-0-0--6b6--------------------------
        D|---0-0-1-0-0-2-0-0-3-0-0--6b6--------------------------
        

         That’s it plz correct it if u can coz I am rubbish I aint played long 


         ORDER
         VERSE X2
         FAST CHORUS   ( as it is wrote )
         VERSE X4
         MENTAL CHORUS 
         KOOL BIT X12
         MENTAL BIT

      NAPALM DEATH RULE AND I KNOW ALOT OF U OUT THERE WERE AFTER THIS SONG SO       HERE IT IS!!!!!!
         RATE AND CORRECT IF U CAN!!!!!!!AND SOMEONE PLZ TAB ARMARGEDAN X7!!!!!!!
            
Submit corrections

comments powered by Disqus
↑ Back to top | Napalm Death Tabs for Scum. Lyrics for acoustic guitar and electric guitar. Tablatures and chords are parodies/interpretations of the original songs. You may use it for private study, scholarship, research or language learning purposes only