» » »

Napalm Death, Politicians Tabs (ver.1)

Artists:  A B C D E F G H I J K L M N O P Q R S T U V W X Y Z # 

Politicians Tabs (ver.1)

Napalm Death Tabs
 Rating:
4/5 (4 votes)
Politicians lessons Tabs too difficult? Try these video lessons and learn fast
1
                
Standard tuning




   Verse 1
E--------------------------
B--------------------------
G--------------------------
D-6--6--9--9--11--11--9--9-
A-6--6--9--9--11--11--9--9-
E-4--4--7--7---9---9--7--7-

   Verse 2
E-------------------------------------------------------------------------
B-------------------------------------------------------------------------
G-------------------------------------------------------------------------
D-6-6-6-6-6-6-6-6-9-9-9-9-9-9-9-9-11-11-11-11-11-11-11-11-9-9-9-9-9-9-9-9-
A-6-6-6-6-6-6-6-6-9-9-9-9-9-9-9-9-11-11-11-11-11-11-11-11-9-9-9-9-9-9-9-9-
E-4-4-4-4-4-4-4-4-7-7-7-7-7-7-7-7--9--9--9--9--9--9--9--9-7-7-7-7-7-7-7-7-

   Verse 3
E----------------------------------16-13-10-
B-------------------------------------------
G-------------------------------------------
D-6-7-8-9-10-11-12-13-14---17~~-14----------
A-6-7-8-9-10-11-12-13-14--------14----------
E-4-5-6-7--8--9-10-11-12--------12----------

not sure about the last part of this one

   Verse 4
E--------------------------
B--------------------------
G--------------------------
D-6--9--6--11--------------
A-6--9--6--11--------------
E-4--7--4---9--------------

   Verse 5
E--------------------------
B--------------------------
G-----2-------5------------
D-2---2---3---5------------
A-2---0---3---3------------
E-0-------1----------------

Not sure about this one either

Song order:

Verse 1   4x
Verse 2   1x
Verse 3   1x
Verse 4   6x
Verse 5   2x
Verse 3   1x
Verse 4   4x
Stop      1 sec.
Verse 4   4x


That's about how I think it's good.
mail me for corrections
            
Submit corrections

comments powered by Disqus
↑ Back to top | Napalm Death Tabs for Politicians. Lyrics for acoustic guitar and electric guitar. 1 Tablatures and chords are parodies/interpretations of the original songs. You may use it for private study, scholarship, research or language learning purposes only