» » »

Next On The List Tabs (ver.1)

Artists:  A B C D E F G H I J K L M N O P Q R S T U V W X Y Z # 

Next On The List Tabs (ver.1)

Napalm Death
Rating:
0/5 (0 votes)

Tabs too difficult? Try these video lessons and learn fast.
                NAPALM DEATH - NEXT ON THE LIST
(Enemy Of The Music Business, 2000)

Key
= after note = vibrato
^ after note = heavy vibrato 
\ = slide down
/ = slide up
+ = tap
h = hammer
p = pull
n = natural harmonic
s = pinching harmonic (squeal)
* = tremolo pick
t = trill
b = bend
|-3-| = triplet

n number above the tab = play the first part then the first finishing part
			 play the first part a second time and then play the second finishing part
			 etc.

Tune Down 1/2 Step

Riff 1 

Eb --------------------------------------------------------------------------------------------------------------------
Bb --------------------------------------------------------------------------------------------------------------------
Gb --------------------------------------------------------------------------------------------------------------------
Db --------------------------------------------------------------------------------------------------------------------
Ab --------------------------------------------------------------------------------------------------------------------
Eb -3-333-3-333-33-33-3-33-3-333-3-333-33-33-3-33-3-333-3-333-33-33-3-33-3-333-3-333-33-33-3-33-3-333-3-333-33-33-3-33-

Eb ----------------------------------------------------------------------
Bb ----------------------------------------------------------------------
Gb ----------------------------------------------------------------------
Db ----------------------------------------------------------------------
Ab ----------------------------------------------------------------------
Eb -3-333-3-333-33-33-3-33-3-333-3-333-33-33-3-33-3-333-3-333-33-33-3-33-

Riff 1A

Eb -----------------------------------------------------------------------------------------------------------------------
Bb -----------------------------------------------------------------------------------------------------------------------
Gb ------------------------66-66-66-66-66-66-66-66-44-44-44-44-44-44-44-44-33-33-33-33------------------------------------
Db ------------------------------------------------------------------------------------22-22-22-22------------------------
Ab ------------------------44-44-44-44-44-44-44-44-22-22-22-22-22-22-22-22-11-11-11-11------------------------------------
Eb -3-333-3-333-33-33-3-33-------------------------------------------------------------00-00-00-00-3-333-3-333-33-33-3-33-

Eb -------------------------------------------------------------------------
Bb -------------------------------------------------------------------------
Gb -66-66-66-66-66-66-66-66-44-44-44-44-44-44-44-44-99-99-99-99-88-88-88-88-
Db -------------------------------------------------------------------------
Ab -44-44-44-44-44-44-44-44-22-22-22-22-22-22-22-22-77-77-77-77-66-66-66-66-
Eb -------------------------------------------------------------------------

Riff 2

				1				  2, 4
Eb ---------------------------- --------------------------------- ---------------------------------
Bb ---------------------------- --------------------------------- ---------------------------------
Gb ---------------------------- -6-6-6-6-6-6-6-6-6-6-6-6-6-6-6-6- -3-3-3-3-3-3-3-3-4-4-4-4-6-6-6-6-
Db -5-5--5-9-5--5-9-5--5-9-5-5- --------------------------------- ---------------------------------
Ab -5-5--5-9-5--5-9-5--5-9-5-5- -4-4-4-4-4-4-4-4-4-4-4-4-4-4-4-4- -1-1-1-1-1-1-1-1-2-2-2-2-4-4-4-4-
Eb -3-3--3-7-3--3-7-3--3-7-3-3- --------------------------------- ---------------------------------

   3
Eb ---------------------------------
Bb ---------------------------------
Gb -8-8-8-8-8-8-8-8-9-9-9-9-8-8-8-8-
Db ---------------------------------
Ab -6-6-6-6-6-6-6-6-7-7-7-7-6-6-6-6-
Eb ---------------------------------

Riff 3

Eb ----------------------------------------------------------------------------------
Bb ----------------------------------------------------------------------------------
Gb --------------------------------------------------------------6------6------6-----
Db -5-5---------------5-5---------------5-5---------------5-5--5-6-5--5-6-5--5-6-5---
Ab -5-5---------------5-5---------------5-5---------------5-5--5-4-5--5-4-5--5-4-5---
Eb -3-3---------------3-3---------------3-3---------------3-3--3---3--3---3--3---3---

Riff 4 

				 1           					  
Eb ----------------------------- -------------------------------------------------
Bb ----------------------------- -------------------------------------------------
Gb -------6-------------6------- -------------------------------------------------
Db -5-5---6--5----5-5---6--5---- -------77-77-55-55-88-88-------77-77-55-55-88-88-
Ab -5-5---4--5----5-5---4--5---- -------------------------------------------------
Eb -3-3-0----3--0-3-3-0----3--0- -55-55-------------------55-55-------------------

   2
Eb -------------------------------------------------
Bb -------------------------------------------------
Gb -------44-44-22-22-55-55-------44-44-22-22-55-55-
Db -------------------------------------------------
Ab -22-22-------------------22-22-------------------
Eb -------------------------------------------------

Riff 5

Eb -------------------------------------------
Bb -------------------------------------------
Gb -6-5-6------7---------6-5-6------7---------
Db -----------------2--------------------2----
Ab -4-2-4------5---------4-2-4------5---------
Eb -----------------0--------------------0----

Riff 5A

Eb -------------------------------------------------
Bb -------------------------------------------------
Gb -6-4-6----7-----6--7--9--6-4-6----7-----6--7--9--
Db -6-4-6----7--3--6--7--9--6-4-6----7--3--6--7--9--
Ab -4-2-4----5--3--4--5--7--4-2-4----5--3--4--5--7--
Eb -------------1-----------------------1-----------

Riff 6

Eb -----------------------------------------------------------------
Bb -----------------------------------------------------------------
Gb -4-4-4-4-4-4-4-4-4-4-4-4-4-4-4-4-4-4-4-4-4-4-4-4-4-4-4-4-4-4-4-4-
Db -----------------------------------------------------------------
Ab -2-2-2-2-2-2-2-2-2-2-2-2-2-2-2-2-0-0-0-0-0-0-0-0-0-0-0-0-0-0-0-0-
Eb -----------------------------------------------------------------

Riff 7 

Eb -----------------------------------------------
Bb -----------------------------------------------
Gb -----------------------------------------------
Db -3-3-3-3-4-4-4-4-----4-4-5-5-2--------2--------
Ab -----------------------------------------------
Eb -1-1-1-1-2-2-2-2-----2-2-3-3-0--------0--------

Riff 7A

Eb -----------------------------------------------------------------
Bb -----------------------------------------------------------------
Gb -----------------------------------------------------------------
Db -3-3-3-3-4-4-4-4-4-4-5-5-2-2-2-2-3-3-3-3-4-4-4-4-4-4-5-5-2-2-2-2-
Ab -----------------------------------------------------------------
Eb -1-1-1-1-2-2-2-2-2-2-3-3-0-0-0-0-1-1-1-1-2-2-2-2-2-2-3-3-0-0-0-0-

Order

Riff 1/1A x 2
Riff 2 x 1
Riff 1/1A x 2
Riff 2 x 1
Riff 3 x 1
Riff 4 x 2
Riff 5 x 2
Riff 5A x 2
Riff 4 x 2
Riff 5 x 2
Riff 5A x 2
Riff 6 x 2
Riff 7 x 2
Riff 7A x 4
            
Tabs too difficult? Try these video lessons and learn fast.




comments powered by Disqus
↑ Back to top | Tablatures and chords are parodies/interpretations of the original songs. You may use it for private study, scholarship, research or language learning purposes only