>
 >
Necessary Evil

Necessary Evil Bass Tabs

Napalm Death - Necessary Evil chords, tabs, tablatures, lyrics

Guitar lessons | Add/correct | Request | Top 50 tabs Artists:  A B C D E F G H I J K L M N O P Q R S T U V W X Y Z 0-9

Necessary Evil Bass Tabs – Napalm Death

CD, Sheet music, Poster

Do you like Necessary Evil? Share with your friends now
Bass TabsBass Tabs v2TabsTabs v2
                            NECESSARY EVIL (Bassline)
                           As recorded by Napalm Death
                (From the 2000 Album ENEMY OF THE MUSIC BUSINESS)

Words by M. Greenway

Music by J. Pintado, S. Embury, M. Harris
Arranged by Napalm Death

Gtr I (D G C F)
Gtr II (D G C F)

   Intro/Verse
    Q=200
   4/4
    Gtrs I, II
    Q  E E Q  E E   Q  E E Q  E E   Q  E E Q  E E   Q  E E E Q.    4x
||----------------|---------------|---------------|----------------||
||o---------------|---------------|---------------|---------------o||
||o-3------3------|-3------3------|-3------3------|-3-------------o||
||-----3S2----3S2-|----3S2----3---|----3S2----3S2-|----3S2-1S5-----||


 Pre-Verse
  E E E E E E E E   E E E E E E E E   E E E E E E E E   E E E E E. E. E
|-----------------|-----------------|-----------------|------------------|
|-----------------|---------2---2h3-|-----------------|------------------|
|-0-------2-------|-0---------------|-0-------2-------|-0-------3--2--1--|
|---1-1-1---1-1-1-|---1-1-1---1-----|---1-1-1---1-1-1-|---1-1-1----------|


  E E E E E E E E   E E E E E E E E   E E E E E E E E   E E E E E. E. E
|-----------------|-----------------|-----------------|------------------|
|-----------------|---------2---2h3-|-----------------|------------------|
|-0-------2-------|-0---------------|-0-------2-------|-0-------1--2--3--|
|---1-1-1---1-1-1-|---1-1-1---1-----|---1-1-1---1-1-1-|---1-1-1----------|


   Verse
    Q  E E Q  E E   Q  E E Q  E E   Q  E E Q  E E   Q  E E E Q.     4x
||----------------|---------------|---------------|-----------------||
||o---------------|---------------|---------------|----------------o||
||o-3------3------|-3------3------|-3------3------|-3--------------o||
||-----3S2----3S2-|----3S2----3---|----3S2----3S2-|----3S2-1S5------||


 Pre-Chorus
  E E E E E E E E   E E E E E E E E   E E E E E E E E   E E E E E. E. E
|-----------------|-----------------|-----------------|------------------|
|-----------------|---------2---2h3-|-----------------|------------------|
|-0-------2-------|-0---------------|-0-------2-------|-0-------3--2--1--|
|---1-1-1---1-1-1-|---1-1-1---1-----|---1-1-1---1-1-1-|---1-1-1----------|


  E E E E E E E E   E E E E E E E E   E E E E E E E E   E E E E E. E. E
|-----------------|-----------------|-----------------|------------------|
|-----------------|---------2---2h3-|-----------------|------------------|
|-0-------2-------|-0---------------|-0-------2-------|-0-------1--2--3--|
|---1-1-1---1-1-1-|---1-1-1---1-----|---1-1-1---1-1-1-|---1-1-1----------|


   Chorus
    D   Bm                              C   Bb
    E E E E E E E E   E E E E E E E E   E E E E E E E E   E E E E E E E E   4x
||------------------|-----------------|-----------------|-------------------||
||o-0-0-0-0-0-0-0-0-|-0-0-0-0-0-0-0-0-|-0-0-0-0-0-0-0-0-|-0-0-0-0-0-0-0-0--o||
||o-5-5-2-2-2-2-2-2-|-2-2-2-2-2-2-2-2-|-4-4-1-1-1-1-1-1-|-1-1-1-1-1-1-1-1--o||
||------------------|-----------------|-----------------|-------------------||


                                       1.
    E E E E E E E E   E E E E E E E E   E E E E E E E E   E E E E E E E E
||------------------|-----------------|-----------------|-------------------||
||o-----------------|-----------------|-----------------|------------------o||
||o-----------------|-----------------|-----------------|------------------o||
||--4-4-1-1-1-1-1-1-|-1-1-1-1-1-1-1-1-|-3-3-0-0-3-3-0-0-|-3-3-0-0-3-3-0-0---||


  2.
  E E E E E E E E   E E E E H
|-----------------|--------------|
|-----------------|--------------|
|-----------------|--------------|
|-3-3-0-0-0-0-0-0-|-0-0-0-0------|


                                       1.
    E E E E E E E E   E E E E E E E E   E E E E E E E E   E E E E E E E E
||------------------|-----------------|-----------------|-------------------||
||o-----------------|-----------------|-----------------|------------------o||
||o-----------------|-----------------|-----------------|------------------o||
||--4-4-1-1-1-1-1-1-|-1-1-1-1-1-1-1-1-|-3-3-0-0-3-3-0-0-|-3-3-0-0-3-3-0-0---||


  2.
  E E E E E E E E   E E E E H
|-----------------|--------------|
|-----------------|--------------|
|-----------------|--------------|
|-3-3-0-0-0-0-0-0-|-0-0-0-0------|


   Verse
    Q  E E Q  E E   Q  E E Q  E E   Q  E E Q  E E   Q  E E E Q.     4x
||----------------|---------------|---------------|-----------------||
||o---------------|---------------|---------------|----------------o||
||o-3------3------|-3------3------|-3------3------|-3--------------o||
||-----3S2----3S2-|----3S2----3---|----3S2----3S2-|----3S2-1S5------||


 Pre-Chorus
  E E E E E E E E   E E E E E E E E   E E E E E E E E   E E E E E. E. E
|-----------------|-----------------|-----------------|------------------|
|-----------------|---------2---2h3-|-----------------|------------------|
|-0-------2-------|-0---------------|-0-------2-------|-0-------3--2--1--|
|---1-1-1---1-1-1-|---1-1-1---1-----|---1-1-1---1-1-1-|---1-1-1----------|


  E E E E E E E E   E E E E E E E E   E E E E E E E E   E E E E E. E. E
|-----------------|-----------------|-----------------|------------------|
|-----------------|---------2---2h3-|-----------------|------------------|
|-0-------2-------|-0---------------|-0-------2-------|-0-------1--2--3--|
|---1-1-1---1-1-1-|---1-1-1---1-----|---1-1-1---1-1-1-|---1-1-1----------|


   Outro Chorus
    E E E E E E E E   E E E E E E E E   E E E E E E E E   E E E E E E E E   4x
||------------------|-----------------|-----------------|-------------------||
||o-0-0-0-0-0-0-0-0-|-0-0-0-0-0-0-0-0-|-0-0-0-0-0-0-0-0-|-0-0-0-0-0-0-0-0--o||
||o-5-5-2-2-2-2-2-2-|-2-2-2-2-2-2-2-2-|-4-4-1-1-1-1-1-1-|-1-1-1-1-1-1-1-1--o||
||------------------|-----------------|-----------------|-------------------||


                                       1.
    E E E E E E E E   E E E E E E E E   E E E E E E E E   E E E E E E E E
||------------------|-----------------|-----------------|-------------------||
||o-----------------|-----------------|-----------------|------------------o||
||o-----------------|-----------------|-----------------|------------------o||
||--4-4-1-1-1-1-1-1-|-1-1-1-1-1-1-1-1-|-3-3-0-0-3-3-0-0-|-3-3-0-0-3-3-0-0---||


  2.
  E E E E E E E E   E E E E H
|-----------------|--------------|
|-----------------|--------------|
|-----------------|--------------|
|-3-3-0-0-0-0-0-0-|-0-0-0-0------|


                                       1.
    E E E E E E E E   E E E E E E E E   E E E E E E E E   E E E E E E E E
||------------------|-----------------|-----------------|-------------------||
||o-----------------|-----------------|-----------------|------------------o||
||o-----------------|-----------------|-----------------|------------------o||
||--4-4-1-1-1-1-1-1-|-1-1-1-1-1-1-1-1-|-3-3-0-0-3-3-0-0-|-3-3-0-0-3-3-0-0---||


  2.
  E E E E E E E E   E E E E H      W
|-----------------|--------------|------*|
|-----------------|--------------|------*|
|-----------------|--------------|------*|
|-3-3-0-0-0-0-0-0-|-0-0-0-0------|------*|


Duration Legend
---------------
W - whole; H - half; Q - quarter; E - 8th; S - 16th; T - 32nd; X - 64th; a - acciaccatura
+ - note tied to previous; . - note dotted; .. - note double dotted
Uncapitalized letters represent notes that are staccato (1/2 duration)
Irregular groupings are notated above the duration line
Duration letters will always appear directly above the note/fret number it represents the
duration for.  Duration letters with no fret number below them represent rests.  Multi-
bar rests are notated in the form Wxn, where n is the number of bars to rest for.  Low
melody durations appear below the staff

Tablature Legend
----------------
 h   - hammer-on
 p   - pull-off
 b   - bend
 pb  - pre-bend
 r   - bend release (if no number after the r, then release immediately)
 /\  - slide into or out of (from/to "nowhere")
 s   - legato slide
 S   - shift slide
  - natural harmonic
[n]  - artificial harmonic
n(n) - tapped harmonic
 ~   - vibrato
 tr  - trill
 T   - tap
 TP  - trem. picking
 PM  - palm muting
\n/  - tremolo bar dip; n = amount to dip
 \n  - tremolo bar down
 n/  - tremolo bar up
/n\  - tremolo bar inverted dip
 =   - hold bend; also acts as connecting device for hammers/pulls
 <>  - volume swell (louder/softer)
 x   - on rhythm slash represents muted slash
 o   - on rhythm slash represents single note slash

Misc Legend
-----------
 |  - bar
||  - double bar
||o - repeat start
o|| - repeat end
*|  - double bar (ending)
 :  - bar (freetime)
 $  - Segno
 &  - Coda
Tempo markers -  = BPM(8/16=s8/s16), where s8 = swing 8ths, s16 = swing 16ths





Comments


Popular Napalm Death tabs & chords
Breed To Breathe Bass Tabs
Vision Conquest Bass Tabs
Back From The Dead Tabs
Bedtime Story Tabs
Greed Killing Tabs
I Abstain Tabs
Morale Tabs
Nultinational Corporations Tabs
Scum 1 Tabs
Suffer Little Children 1 Tabs


Song lyrics



↑ Back to top | Tablatures and chords are parodies/interpretations of the original songs. You may use it for private study, scholarship, research or language learning purposes only
© 2014 AZChords.com Contact us | Privacy policy | DMCA | Add/correct tabs | Request tabs | Top 50 tabs