» » »

Nazi Punks Fuck Off Bass tabs (ver.1)

Artists:  A B C D E F G H I J K L M N O P Q R S T U V W X Y Z # 

Nazi Punks Fuck Off Bass tabs (ver.1)

Napalm Death
Rating:
0/5 (0 votes)

Hard to play? Try these video lessons and learn fast.
                Nazi Punks f**k Off                               
Napalm Death
Bass



       E  H.           E     E  H.           E     E  H.           E   
D#||----------------------|---------------------|---------------------|
A#||*---------------------|---------------------|---------------------|
F ||*--3--0------------L--|-----0------------L--|--3--0------------L--|
C ||----------------------|--3------------------|---------------------|


  E  H.           E       E  E  E  E  E  E  E  E     E  E  E  E  Q    E  E   
----------------------||--------------------------|-------------------------|
---------------------*||--------------------------|-------------------------|
-----0------------L--*||--------------------------|--------------3----3--3--|
--3-------------------||--3--5--5--5--3--5--5--5--|--3--5--5--5-------------|


  E  E  E  E  E  E  E  E     E  E  E  E  Q    E  E       E  H.           E   
--------------------------|-------------------------||----------------------|
--------------------------|-------------------------||*---------------------|
--------------------------|--------------3----3--3--||*--3--0------------L--|
--3--5--5--5--3--5--5--5--|--3--5--5--5-------------||----------------------|


  E  H.           E     E  H.           E     E  H.           E     
---------------------|---------------------|----------------------||
---------------------|---------------------|---------------------*||
-----0------------L--|--3--0------------L--|-----0------------L--*||
--3------------------|---------------------|--3-------------------||


  E  E  E  E  E  E  E  E     E  E  E  E  Q    E  E     E  E  E  E  E  E  E  E   
--------------------------|-------------------------|--------------------------|
--------------------------|-------------------------|--------------------------|
--------------------------|--------------3----3--3--|--------------------------|
--3--5--5--5--3--5--5--5--|--3--5--5--5-------------|--3--5--5--5--3--5--5--5--|


              |----3----|                               
  E  E  E  E  Q    Q    Q       E  E  E  E  E  Q    E   
-----------------------------|-------------------------|
-----------------------------|-------------------------|
--------------3----3----3----|--3--3--3--3--3--0----0--|
--3--5--5--5-----------------|-------------------------|


  E  E  E  E  E  Q    E     E  E  E  E  E  Q    E     E  E  E  E  E  Q    E   
-------------------------|-------------------------|-------------------------|
-------------------------|-------------------------|-------------------------|
-----------------0----0--|--3--3--3--3--3--0----0--|-----------------0----0--|
--3--3--3--3--3----------|-------------------------|--3--3--3--3--3----------|


  E  Q    E  E  Q    E     E  Q    E  E  E  E  E     E  Q    E  E  Q    E   
------------------------|-------------------------|------------------------|
------------------------|-------------------------|------------------------|
-----0----0-----0----0--|-----0----0--3--3--3--3--|-----0----0-----0----0--|
--3----------3----------|--3----------------------|--3----------3----------|


  E  Q    E  E  E  E  E     E  Q    E  E  Q    E     E  E  E  E  E  Q    E   
-------------------------|------------------------|-------------------------|
-------------------------|------------------------|-------------------------|
-----0----0--3--3--3--3--|--3--0----0--3--0----0--|--3--3--3--3--3--0----0--|
--3----------------------|------------------------|-------------------------|


  E  E  E  E  E  Q    E     E  E  E  E  E  Q    E     E  E  E  E  E  Q    E   
-------------------------|-------------------------|-------------------------|
-------------------------|-------------------------|-------------------------|
-----------------0----0--|--3--3--3--3--3--0----0--|-----------------0----0--|
--3--3--3--3--3----------|-------------------------|--3--3--3--3--3----------|


  E  Q    E  E  Q    E     E  Q    E  E  E  E  E     E  Q    E  E  Q    E   
------------------------|-------------------------|------------------------|
------------------------|-------------------------|------------------------|
-----0----0-----0----0--|-----0----0--3--3--3--3--|-----0----0-----0----0--|
--3----------3----------|--3----------------------|--3----------3----------|


  E  Q    E  E  E  E  E       E  Q    E  E  Q    E     E  Q    E  E  Q    E   
-------------------------||-------------------------|------------------------|
-------------------------||*------------------------|------------------------|
-----0----0--3--3--3--3--||*--3--0----0--3--0----0--|--3--0----0-----0----0--|
--3----------------------||-------------------------|-------------3----------|


  E  Q    E  E  Q    E     E  Q    E  E  Q    E   3x  E  E  E  E  E  Q    E   
------------------------|-------------------------||-------------------------|
------------------------|------------------------*||-------------------------|
--3--0----0--3--0----0--|--3--0----0-----0----0--*||--3--3--3--3--3--0----0--|
------------------------|-------------3-----------||-------------------------|


  E  E  E  E  E  Q    E     E  E  E  E  E  Q    E     E  E  E  E  E  Q    E   
-------------------------|-------------------------|-------------------------|
-------------------------|-------------------------|-------------------------|
-----------------0----0--|--3--3--3--3--3--0----0--|-----------------0----0--|
--3--3--3--3--3----------|-------------------------|--3--3--3--3--3----------|


  E  Q    E  E  Q    E     E  Q    E  E  E  E  E     E  Q    E  E  Q    E   
------------------------|-------------------------|------------------------|
------------------------|-------------------------|------------------------|
-----0----0-----0----0--|-----0----0--3--3--3--3--|-----0----0-----0----0--|
--3----------3----------|--3----------------------|--3----------3----------|


  E  Q    E  E  E  E  E     E  Q    E  E  Q    E     E  Q    E  E  Q    E   
-------------------------|------------------------|------------------------|
-------------------------|------------------------|------------------------|
-----0----0--3--3--3--3--|--3--0----0--3--0----0--|--3--0----0-------------|
--3----------------------|------------------------|-------------1--0----0--|


  Q    H.             
--------------------||
--------------------||
--------------------||
--1-----------------||




Duration Legend
---------------
W - whole
H - half
Q - quarter
E - 8th
S - 16th
T - 32nd
X - 64th
. - note dotted
|-n-|  - n-tuplets


Tablature Legend
----------------
L - tied note
x - dead note
g - grace note
(n) - ghost note
> - accentuded note
NH - natural harmonic
AH - artificial harmonic
TH - tapped harmonic
SH - semi harmonic
PH - pitch harmonic
h - hammer on
p - pull off
b - bend
br - bendRelease
pb - preBend
pbr - preBendRelease
brb - bendReleaseBend
\n/ - tremolo bar dip
\n - tremolo bar dive
-/n - tremolo bar Release up
/n\ - tremolo bar inverted dip
/n - tremolo bar return
-\n - tremolo bar Release down
S - shift slide
s - legato slide
/ -  slide into from below or out of upwards
\ -  slide into from above or out of downwards
~ - vibrato
W - wide vibrato
tr - trill
TP - tremolo picking
T - tapping
S - slap
P - pop
< - fade in
^ - brush up
v - brush down
            
Hard to play? Try these video lessons and learn fast. | Correct




comments powered by Disqus
↑ Back to top | Tablatures and chords are parodies/interpretations of the original songs. You may use it for private study, scholarship, research or language learning purposes only