» » »

Morale Tabs (ver.1)

Artists:  A B C D E F G H I J K L M N O P Q R S T U V W X Y Z # 

Morale Tabs (ver.1)

Napalm Death
Rating:
0/5 (0 votes)

Hard to play? Try these video lessons and learn fast.
                -------------------------------------------------------------------------------
-------------------------------------------------------------------------------

Tuning: Drop D


| /  slide up
| \  slide down
| h  hammer-on
| p  pull-off
| ~  vibrato
| +  harmonic
| x  Mute note
===============================================================================

The bass and the drums start off the song, then the guitar comes in with this...

e|------------------------------------------------------------------------------|
B|------------------------------------------------------------------------------|
G|--------------5-4---------------5-4---------------5-4---------------5-4--4h5--|
D|-----6-5---------------6-5---------------6-5---------------6-5----------------|
A|------------------------------------------------------------------------------|
E|-0-3------0-3------0-3------0-3------0-3------0-3------0-3------0-3-----------| x4

e|----------------------------------------------|
B|----------------------------------------------|
G|----------------------------3-2------3-2---3--|
D|-----4-3---------4-3--------------------------|
A|---------2-2---------2-2----------------------|
E|-0-3-----0-0-0-3-----0-0-0-3-----0-3----------| x4

e|------------------------------------------------------------------------------|
B|------------------------------------------------------------------------------|
G|--------------5-4---------------5-4---------------5-4---------------5-4--4h5--|
D|-----6-5---------------6-5---------------6-5---------------6-5----------------|
A|------------------------------------------------------------------------------|
E|-0-3------0-3------0-3------0-3------0-3------0-3------0-3------0-3-----------| x2

e|----------------------------------------------|
B|----------------------------------------------|
G|----------------------------3-2------3-2---3--|
D|-----4-3---------4-3--------------------------|
A|---------2-2---------2-2----------------------|
E|-0-3-----0-0-0-3-----0-0-0-3-----0-3----------| x4

e|-------------------------------------|
B|-------------------------------------|
G|-------------------------------------|
D|-------------------------------------|
A|-2-2-2-2-2-4-4-4-4-4-----------------|
E|---------------------4-4-4-4-3-3-3-3-| x4

e|-------------------------------------|
B|-------------------------------------|
G|-------------------------------------|
D|-4-4-4-4-4-6-6-6-6-6-----------------|
A|---------------------6-6-6-6-5-5-5-5-|
E|-------------------------------------| x4

e|------------------------------------------------------------------------------|
B|------------------------------------------------------------------------------|
G|--------------5-4---------------5-4---------------5-4---------------5-4--4h5--|
D|-----6-5---------------6-5---------------6-5---------------6-5----------------|
A|------------------------------------------------------------------------------|
E|-0-3------0-3------0-3------0-3------0-3------0-3------0-3------0-3-----------|

e|------------------------------------------------------------------------------|
B|------------------------------------------------------------------------------|
G|--------------5-4---------------5-4---------------5-4---------------5-4-------|
D|-----6-5---------------6-5---------------6-5---------------6-5----------------|
A|------------------------------------------------------------------------------|
E|-0-3------0-3------0-3------0-3------0-3------0-3------0-3------0-3-----------|

Let the last note drift off and you're done. The song continues on for about a minute 
then leads into Our Pain Is Their Power.
            
Hard to play? Try these video lessons and learn fast. | Correct




comments powered by Disqus
↑ Back to top | Tablatures and chords are parodies/interpretations of the original songs. You may use it for private study, scholarship, research or language learning purposes only