» » »

Napalm Death, Mass Appeal Madness Tabs (ver.1)

Artists:  A B C D E F G H I J K L M N O P Q R S T U V W X Y Z # 

Mass Appeal Madness Tabs (ver.1)

Napalm Death Tabs
 Rating:
4/5 (4 votes)
Mass Appeal Madness lessons Tabs too difficult? Try these video lessons and learn fast
                       N A P A L M  D E A T H  -  M A S S  A P P E A L  M A D N E S S
                      From the Album DEATH BY MANIPULATION
                            Copyright EARACHE RECORDS

                              Version 1.1 - MAY '02


For Questions, Comments, Newest Version, or Corrections contact





.  - palm mute                  /  - slide up to
\  - slide down to              ~  - vibrato
"  - tremelo picking           ( ) - ghost note
b  - bend                       h  - hammer-on
fb - full bend (1 step)         p  - pull-off
hb - half bend (1/2 step)       r  - release a bend
t  - tapping                    ah - artificial harmonic

Tune Gtr to C#

--M A S S  A P P E A L  M A D N E S S--

[Riff A]                        [A.1]
[-------------------------------|------------------------------------]
[-------------------------------|------------------------------------]
[*------------------------------|-----------------------------------*][Gtr.1]
[*-6------------------8\7-------|-6------------------7\6/8----------*]
[--4----5------4/5----6\5-------|-4----5------4/5----5\4/6----5/6\3--]
[----0"-3-0"---2/3-0"--sl-0"----|---0"-3-0"---2/3-0"---sl--0"-3/4\1--]
                sl                             sl               sl
[-------------------------------|------------------------------------]
[-------------------------------|------------------------------------]
[*------------------------------|-----------------------------------*][Gtr.2]
[*-6----------------------------|-6---------------------------------*]
[--4----5-----------------------|-4----5-----------------------------]
[----0"-3-----------------------|---0"-3-----------------------------]


Riff A   [1tx]
Riff A   [3tx]
Riff A.1 [1tx]
Riff A   [3tx]
Riff A.1 [1tx]
Riff A   [3tx]
Riff A.1 [1tx]


[Riff B]                                             
[-----------------------------|---------------------------]
[-----------------------------|---------------------------]
[*----------------------------|--------------------------*][Gtrs.1&2]
[*----------------------------|--------------------------*]
[-----------2"----1"----------|------2"--------2"--1"-----]
[--0"----3"----------3"2"0"---|-"3"-------3"--------------]


Riff B   [3tx]
Riff A   [3tx]
Riff A.1 [1tx]
Riff A   [3tx]
Riff A.1 [1tx]
Riff B   [4tx]


[Fill 1]
[---------------]
[---------------]
[*-------------*][Gtrs.1&2]
[*-------------*]
[--2------------]
[--0------------]
 [Hold]


[Riff C]
[---------------------------------|--------------------------------------]
[---------------------------------|--------------------------------------]
[*--------------------------------|-------------------------------------*][Gtr.1]
[*--------------------------------|--6-------9--------------------------*]
[--5------6------3---5---6------5-|--4---7---7-------3---5---6---5---3---]
[--3-0"---4-0"---1---3---4-0"---3-|------5-------0---1---3---4---3---1---]

[---------------------------------|--------------------------------------]
[---------------------------------|--------------------------------------]
[*--------------------------------|-------------------------------------*][Gtr.2]
[*--------------------------------|-------------------------------------*]
[--5------------------------------|--------------------------------------]
[--3------------------------------|--------------------------------------]

[---------------------------------|--------------------------------------]
[---------------------------------|--------------------------------------]
[*--------------------------------|-------------------------------------*][Gtr.1]
[*--------------------------------|--6-------9--------------------------*]
[--5------6------3---5---6------5-|--4---7---7-------3---5---6---5---3---]
[--3-0"---4-0"---1---3---4-0"---3-|------5-------0---1---3---4---3---1---]

[---------------------------------|--------------------------------------]
[---------------------------------|--------------------------------------]
[*--------------------------------|-------------------------------------*][Gtr.2]
[*--------------------------------|--6-------9--------------------------*]
[--5------------------------------|--4---7---7---------------------------]
[--3------------------------------|------5-------------------------------]


Riff C [4tx]


[Riff D]                                                            
[-----------------------------------|-----------------------------------]
[-----------------------------------|-----------------------------------]
[*----------------------------------|----------------------------------*][Gtrs.1&2]
[*----------------------------------|-------------2"-------------------*]
[----------3"-0"3"---------3"-0"3"--|----------3"------3"0"3"-----------]
[--0"----1"--------0"----1"---------|-0"----1"------------------1"------]


Riff D [3tx]


[Riff E]                                                   
[-----------------------------|--------------------------------]
[-----------------------------|--------------------------------]
[*----------------------------|-------------------------------*][Gtrs.1&2]
[*-------------5"-------------|-------------5"----------------*]
[--2----------------2"--------|-2----------------2-3---3---3---]
[--0------3"-------------1"---|-0------3"----------1---1---1---]


Riff E [1tx]


[Riff F]
[--------------------------------------|-------------------------------------]
[--------------------------------------|-------------------------------------]
[*-------------------------------------|------------------------------------*][Gtr.1] 
[*-----4-------4-3-----4----------5"---|-----4-------4-3-----4----------4"--*]
[------2-5-----2-1-----2-5-------------|-----2-5-----2-1-----2-5-------------]
[--002---3-220-----002---3-2202_3------|-002---3-220-----002---3-2200_2------]
                               h                                     h
[--------------------------------------|-------------------------------------]
[--------------------------------------|-------------------------------------]
[*-------------------------------------|------------------------------------*][Gtr.2]
[*--------------------------------5"---|--------------------------------4"--*]
[--2--------------------------4/5------|-2--------------------------2/4------]
[--0-----------------------2202/3------|-0-----------------------2200/2------]
                               sl                                    sl


Riff F [2tx]


[Riff G]                                                            
[----------------------------------|------------------------------------]
[----------------------------------|------------------------------------]
[*---------------------------------|-----------------------------------*][Gtrs.1&2]
[*-2"---------------2"-------------|-2"---------------2"---------------*]
[---------------3"------3"----3----|--------------3"------3"------------]
[--------------------------4"--410-|--------------------------4"-1"-0"--]


Riff G [1tx]


[Riff H]                                                            
[-----------------------------------|------------------------------------]
[-----------------------------------|------------------------------------]
[*----------------------------------|-----------------------------------*][Gtrs.1&2]
[*------------------------------4_5-|-----------------------------------*]
[--2"-----2---2-1----------------h--|-2"----------2---2-1----------------]
[------3"---3-----3-0-3--0-3_4------|----------3"---3-----4"-1"-------0"-]
                            h

Riff H [1tx]
Riff F [2tx]
Riff G [2tx]
Riff H [2tx]


[Fill 2] [Both] [Gtr.2]  
[---------------|---------------]
[---------------|---------------]
[*--------------|--------------*][Gtrs.1&2]
[*--------------|--------------*]
[--2------------|-2"------------]
[--0------------|------3"-------]
[Pause]


[Fill 3]
[------]
[------]
[*----*][Gtrs.1&2]
[*----*]
[--2---]
[--0---]


[Riff I]
[------------------------------|------------------------------]
[------------------------------|------------------------------]
[*-----------------------------|-----------------------------*][Gtrs.1&2]
[*--------6-----5--------------|--------6-----5---/8-7-------*]
[---------4-----3---5-6"-------|--------4-----3---/6-5--------]
[--0"---------5-----3-4"-------|-0"---------5-----sl----------]
                                                          
[------------------------------|------------------------------]
[------------------------------|------------------------------]
[*-----------------------------|-----------------------------*][Gtrs.1&2]
[*--------6-----5--------------|--------6-----5--------------*]
[---------4-----3--3-6---------|--------4-----3---------------]
[--0"---------5----1-4---------|-0"---------5-----4"-1"-0"----]


Riff I [1tx]
Riff E [2tx]
End on E5 chord!
            
Submit corrections

comments powered by Disqus
↑ Back to top | Napalm Death Tabs for Mass Appeal Madness. Lyrics for acoustic guitar and electric guitar. Tablatures and chords are parodies/interpretations of the original songs. You may use it for private study, scholarship, research or language learning purposes only