» » »

Lowlife Tabs (ver.1)

Artists:  A B C D E F G H I J K L M N O P Q R S T U V W X Y Z # 

Lowlife Tabs (ver.1)

Napalm Death
Rating:
0/5 (0 votes)

Hard to play? Try these video lessons and learn fast.
                -------------------------------------------------------------------------------
-------------------------------------------------------------------------------

Tuning: Drop D

Origional Artist: Cryptic Slaughter

| *  Let drift
| \  slide down
| h  hammer-on
| pm palm mute
============================================================================

The drums start off the song, then the guitars come in.
e|----------------------------------------------|
B|----------------------------------------------|
G|----------------------------------------------|
D|-----------------5-4-4-----------------5-7-7--|
A|-0-0-0-0-0-0-0-0-3-2-2-0-0-0-0-0-0-0-0-3-5-5--|
E|----------------------------------------------| x4

e|----------------------------------------------|
B|----------------------------------------------|
G|----------------------------------------------|
D|----------------------------------------------|
A|-----------------5-4-4-----------------5-7-7--|
E|-0-0-0-0-0-0-0-0-3-2-2-0-0-0-0-0-0-0-0-3-5-5--| x2

e|----------------------------------------------|
B|----------------------------------------------|
G|----------------------------------------------|
D|-----------------5-4-4-----------------5-7-7--|
A|-0-0-0-0-0-0-0-0-3-2-2-0-0-0-0-0-0-0-0-3-5-5--|
E|----------------------------------------------|

e|-----------------------------------------------|
B|-----------------------------------------------|
G|-----------------------------------------------|
D|-----------------5-4-4-----------------5-7-7*--|
A|-0-0-0-0-0-0-0-0-3-2-2-0-0-0-0-0-0-0-0-3-5-5*--|
E|-----------------------------------------------|

Main riff 1
Guitar 1 play this 2 time through
e|----------------|
B|----------------|
G|----------------|
D|-7-10\9---------|
A|-5- 8\7-9-9-9-9-|
E|--------7-7-7-7-| x2

Then both guitars come in and play it 6 times through together.
e|----------------|
B|----------------|
G|----------------|
D|-7-10\9---------|
A|-5- 8\7-9-9-9-9-|
E|--------7-7-7-7-| x6

Main riff 2
e|---------------------|
B|---------------------|
G|---------------------|
D|-7-7-7-7-10-10-9-9---|
A|-5-5-5-5-8--8--7-7-9-|
E|-------------------7-| x4

e|----------------|
B|----------------|
G|----------------|
D|-7-10\9---------|
A|-5- 8\7-9-9-9-9-|
E|--------7-7-7-7-| x6

e|-------------------------------------|
B|-------------------------------------|
G|-------------------------------------|
D|-------------------------------------|
A|-10-10-7-7-9-9-9-9-10-10-7-7---------|
E|-8--8--5-5-7-7-7-7-8--8--5-5-0-0-0-0-| x2

e|-------------------|
B|-------------------|
G|-------------------|
D|-10-10-7-7-9-9-7-7-|
A|-8--8--5-5-7-7-5-5-|
E|-------------------| x4

e|-------------------------------------|
B|-------------------------------------|
G|-------------------------------------|
D|-------------------------------------|
A|-10-10-7-7-9-9-9-9-10-10-7-7---------|
E|-8--8--5-5-7-7-7-7-8--8--5-5-0-0-0-0-| x2


e|-------------------|
B|-------------------|
G|-------------------|
D|-10-10-7-7-9-9-7-7-|
A|-8--8--5-5-7-7-5-5-|
E|-------------------| x4

e|-------------------------------------|
B|-------------------------------------|
G|---------------------|------pm------||
D|-10-10-10-10-7-7-7-7-----------------|
A|-8--8--8--8--5-5-5-5-2-2-2-2-2-2-2-2-|
E|---------------------0-0-0-0-0-0-0-0-| x4

e|-------------------------------------|
B|-------------------------------------|
G|----------------------|--pm-|-|-pm--||
D|-10-10-10-10-7-7-7-7-9-------9-------|
A|-8--8--8--8--5-5-5-5-7-2-2-2-7-2-2-2-|
E|-----------------------0-0-0---0-0-0-| x3

e|-----------------------|
B|-----------------------|
G|-----------------------|
D|-10-10-10-10-7-7-7-7---|
A|-8--8--8--8--5-5-5-5-2-|
E|---------------------0-| 

e|-------------|
B|-------------|
G|-------------|
D|-------------|
A|---5-6-5-----|
E|-3-------6h4-| x6

e|---------------------|
B|---------------------|
G|---------------------|
D|-7-7-7-7-10-10-9-9---|
A|-5-5-5-5-8--8--7-7-9-|
E|-------------------7-| x4

e|----------------|
B|----------------|
G|----------------|
D|-7-10\9---------|
A|-5- 8\7-9-9-9-9-|
E|--------7-7-7-7-| x6

e|-------------------------------------|
B|-------------------------------------|
G|-------------------------------------|
D|-------------------------------------|
A|-10-10-7-7-9-9-9-9-10-10-7-7---------|
E|-8--8--5-5-7-7-7-7-8--8--5-5-0-0-0-0-| x2


e|-------------------|
B|-------------------|
G|-------------------|
D|-10-10-7-7-9-9-7-7-|
A|-8--8--5-5-7-7-5-5-|
E|-------------------| x4

e|-------------------------------------|
B|-------------------------------------|
G|-------------------------------------|
D|-------------------------------------|
A|-10-10-7-7-9-9-9-9-10-10-7-7---------|
E|-8--8--5-5-7-7-7-7-8--8--5-5-0-0-0-0-| x2


e|-------------------|
B|-------------------|
G|-------------------|
D|-10-10-7-7-9-9-7-7-|
A|-8--8--5-5-7-7-5-5-|
E|-------------------| x3

e|------------------------|
B|------------------------|
G|------------------------|
D|-10-10-7-7-9-9-7-7--9-9-|
A|-8--8--5-5-7-7-5-5--7-7-|
E|------------------------|
            
Hard to play? Try these video lessons and learn fast. | Correct




comments powered by Disqus
↑ Back to top | Tablatures and chords are parodies/interpretations of the original songs. You may use it for private study, scholarship, research or language learning purposes only