>
 >
Inner Incineration

Inner Incineration Bass Tabs

Napalm Death - Inner Incineration chords, tabs, tablatures, lyrics

Guitar lessons | Add/correct | Request | Top 50 tabs Artists:  A B C D E F G H I J K L M N O P Q R S T U V W X Y Z 0-9

Inner Incineration Bass Tabs – Napalm Death

CD, Sheet music, Poster

Do you like Inner Incineration? Share with your friends now
Bass TabsTabs
Inner Incineration                                
Napalm Death
Shane Embury (Bass)



     W                   Q    H        E  E     Q    H        Q     
F||-------------------|----------------------|---------------------|
C||-------------------|----------------------|---------------------|
G||-------------------|--3----------------1--|--3------------------|
D||-------------------|----------------------|---------------------|


  Q    H        E  E     E  E  E  E  E  E  E  E     E  E  E  E  E  E  E  E   
----------------------|--------------------------|--------------------------|
----------------------|--------------------------|--------------------------|
--3----------------1--|--3--------2--1--------1--|--3--------2--1--------1--|
----------------------|-----0--0--------0--0-----|-----0--0--------0--0-----|


  E  E  E  E  E  E  E  E     E  E  E  E  E  E  E  E   
--------------------------|--------------------------|
--------------------------|--------------------------|
--3--------2--1--------1--|--3--------2--1--------1--|
-----0--0--------0--0-----|-----0--0--------0--0-----|


  E  E  E  E  E  E  E  E     E  E  E  E  E  E  E  E   
--------------------------|--------------------------|
--------------------------|--------------------------|
--3--------2--1--------1--|--3--------2--1--------1--|
-----0--0--------0--0-----|-----0--0--------0--0-----|


  E  E  E  E  E  E  E  E     E  E  E  E  E  E  E  E   
--------------------------|--------------------------|
--------------------------|--------------------------|
--3--------2--1--------1--|--3--------2--1--------1--|
-----0--0--------0--0-----|-----0--0--------0--0-----|


  E  E  E  E  E  E  E  E     E  E  E  E  E  E  E  E   
--------------------------|--------------------------|
--------------------------|--------------------------|
--3--------2--1--------1--|--3--------2--1--------1--|
-----0--0--------0--0-----|-----0--0--------0--0-----|


  E  E  E  E  E  E  E  E     E  E  E  E  E  E  E  E     Q    Q    Q     
--------------------------|--------------------------|-----------------|
--------------------------|--------------------------|-----------------|
--3--------2--1--------1--|--3--------2--1--------1--|-----------------|
-----0--0--------0--0-----|-----0--0--------0--0-----|--0--------------|


  E  E  E  E  E  E  E  E     E  E  E  E  E  E  E  E   
--------------------------|--------------------------|
--------------------------|--------------------------|
-----------2--1-----------|-----------2--1-----------|
--3--4--3--------1--3--4--|--3--4--3--------1--3--4--|


  E  E  E  E  E  E  E  E     E  E  E  E  E  E  E  E   
--------------------------|--------------------------|
--------------------------|--------------------------|
-----------2--1-----------|-----------2--1-----------|
--3--4--3--------1--3--4--|--3--4--3--------1--3--4--|


  S S S S S S S S S S S S S S S S    S S S S S S S S S S S S S S S S  
----------------------------------|----------------------------------|
----------------------------------|----------------------------------|
--------------2-2-1-1-------------|--------------2-2-1-1-------------|
--3-3-4-4-3-3---------1-1-3-3-4-4-|--3-3-4-4-3-3---------1-1-3-3-4-4-|


  S S S S S S S S S S S S S S S S    S S S S S S S S S S S S S S S S  
----------------------------------|----------------------------------|
----------------------------------|----------------------------------|
--------------2-2-1-1-------------|--------------2-2-1-1-------------|
--3-3-4-4-3-3---------1-1-3-3-4-4-|--3-3-4-4-3-3---------1-1-3-3-4-4-|


  E  E  E  E  E  E  E  E     E  E  E  E  E  E  E  E   
--------------------------|--------------------------|
--------------------------|--------------------------|
-----------2--1-----------|-----------2--1-----------|
--3--4--3--------1--3--4--|--3--4--3--------1--3--4--|


  E  E  E  E  E  E  E  E     E  E  E  E  E  E  E  E   
--------------------------|--------------------------|
--------------------------|--------------------------|
-----------2--1-----------|-----------2--1-----------|
--3--4--3--------1--3--4--|--3--4--3--------1--3--4--|


  S S S S S S S S S S S S S S S S    S S S S S S S S S S S S S S S S  
----------------------------------|----------------------------------|
----------------------------------|----------------------------------|
--------------2-2-1-1-------------|--------------2-2-1-1-------------|
--3-3-4-4-3-3---------1-1-3-3-4-4-|--3-3-4-4-3-3---------1-1-3-3-4-4-|


  S S S S S S S S S S S S S S S S    S S S S S S S S S S S S S S S S  
----------------------------------|----------------------------------|
----------------------------------|----------------------------------|
--------------2-2-1-1-------------|--------------2-2-1-1-------------|
--3-3-4-4-3-3---------1-1-3-3-4-4-|--3-3-4-4-3-3---------1-1-3-3-4-4-|


  E  S S S S E  E  S S S S E     E  S S S S E  E  S S S S E   
------------------------------|------------------------------|
------------------------------|------------------------------|
---------------------------1--|------------------------------|
--0--0-0-0-0-1--0--0-0-0-0----|--0--0-0-0-0-1--0--0-0-0-0-3--|


  E  S S S S E  E  S S S S E     E  E  E  E  E  E  E  E   
------------------------------|--------------------------|
------------------------------|--------------------------|
------------------------------|--------------------------|
--0--0-0-0-0-1--0--0-0-0-0-1--|--0--0--1--3--4--3--1--3--|


  E  S S S S E  E  S S S S E     E  S S S S E  E  S S S S E   
------------------------------|------------------------------|
------------------------------|------------------------------|
---------------------------1--|------------------------------|
--0--0-0-0-0-1--0--0-0-0-0----|--0--0-0-0-0-1--0--0-0-0-0-3--|


  E  S S S S E  E  S S S S E     E  E  E  E  E  E  E  E     W                 
------------------------------|--------------------------|-------------------|
------------------------------|--------------------------|-------------------|
------------------------------|--------------------------|-------------------|
--0--0-0-0-0-1--0--0-0-0-0-1--|--0--0--1--3--4--3--1--3--|--2----------------|


  E  Q    E  Q    E  E     W                   E  Q    E  Q    E  E   
------------------------|-------------------|------------------------|
------------------------|-------------------|------------------------|
----------2-------------|-------------------|----------2-------------|
--4--3-------1----3--1--|--2----------------|--4--3-------1----3--1--|


  S S S S S S S S S S S S S S S S    S S S S S S S S S S S S S S S S  
----------------------------------|----------------------------------|
----------------------------------|----------------------------------|
----------------------------------|------2-2-------------------------|
--2-2-2-2-2-2-2-2-2-2-2-2-4-4-3-3-|--3-3-----1-1-1-1-3-3-1-1-2-2-2-2-|


  S S S S S S S S S S S S S S S S    S S S S S S S S  
----------------------------------|------------------|
----------------------------------|------------------|
------------------------------2-2-|------------------|
--2-2-2-2-2-2-2-2-4-4-3-3-3-3-----|--1-1-1-1-3-3-1-1-|


  S S S S S S S S S S S S S S S S    S S S S S S S S S S S S S S S S  
----------------------------------|----------------------------------|
----------------------------------|----------------------------------|
----------------------------------|--------------2-2-----------------|
--2-2-2-2-2-2-2-2-2-2-2-2-2-2-2-2-|--4-4-3-3-3-3-----1-1-1-1-3-3-1-1-|


  S S S S S S S S S S S S S S S S    S S S S S S S S S S S S S S S S  
----------------------------------|----------------------------------|
----------------------------------|----------------------------------|
----------------------------------|--------------2-2-----------------|
--2-2-2-2-2-2-2-2-2-2-2-2-2-2-2-2-|--4-4-3-3-3-3-----1-1-1-1-3-3-1-1-|


  S S S S S S S S S S S S S S S S    S S S S S S S S S S S S S S S S  
----------------------------------|----------------------------------|
----------------------------------|----------------------------------|
----------------------------------|--------------2-2-----------------|
--2-2-2-2-2-2-2-2-2-2-2-2-2-2-2-2-|--4-4-3-3-3-3-----1-1-1-1-3-3-1-1-|


  S S S S S S S S S S S S S S S S    S S S S S S S S S S S S S S S S  
----------------------------------|----------------------------------|
----------------------------------|----------------------------------|
----------------------------------|--------------2-2-----------------|
--2-2-2-2-2-2-2-2-2-2-2-2-2-2-2-2-|--4-4-3-3-3-3-----1-1-1-1-3-3-1-1-|


  W                   E  Q    E  Q    E  E     W                 
-------------------|------------------------|-------------------|
-------------------|------------------------|-------------------|
-------------------|----------2-------------|-------------------|
--2----------------|--4--3-------1----3--1--|--2----------------|


  E  Q    E  Q    E  E     W                   E  Q    E  Q    E  E   
------------------------|-------------------|------------------------|
------------------------|-------------------|------------------------|
----------2-------------|-------------------|----------2-------------|
--4--3-------1----3--1--|--2----------------|--4--3-------1----3--1--|


  W                   E  Q    E  Q    E  E     S S S S S S S S S S S S S S S S  
-------------------|------------------------|----------------------------------|
-------------------|------------------------|----------------------------------|
-------------------|----------2-------------|--------------------------2-2-0-0-|
--2----------------|--4--3-------1----3--1--|--2-2-3-3-3-2-2-3-3-2-2-2---------|


  S S S S S S S S S S S S S S S S    S S S S S S S S S S S S S S S S  
----------------------------------|----------------------------------|
----------------------------------|----------------------------------|
----------------------------------|----------------------------------|
--4-4-2-2-0-0-2-2-3-3-2-2-2-2-2-2-|--0-0-0-0-2-2-3-3-2-2-0-0-2-2-2-2-|


  H        Q       S S S S S S S S S S S S S S S S  
----------------|----------------------------------|
----------------|----------------------------------|
----------------|--------------------------2-2-0-0-|
----------------|--2-2-3-3-3-2-2-3-3-2-2-2---------|


  S S S S S S S S S S S S S S S S    S S S S S S S S S S S S S S S S  
----------------------------------|----------------------------------|
----------------------------------|----------------------------------|
----------------------------------|----------------------------------|
--4-4-2-2-0-0-2-2-3-3-2-2-2-2-2-2-|--0-0-0-0-2-2-3-3-2-2-0-0-2-2-2-2-|


  H        Q       S S S S S S S S S S S S S S S S  
----------------|----------------------------------|
----------------|----------------------------------|
----------------|--------------------------2-2-0-0-|
----------------|--2-2-3-3-3-2-2-3-3-2-2-2---------|


  S S S S S S S S S S S S S S S S    S S S S S S S S S S S S S S S S  
----------------------------------|----------------------------------|
----------------------------------|----------------------------------|
----------------------------------|----------------------------------|
--4-4-2-2-0-0-2-2-3-3-2-2-2-2-2-2-|--0-0-0-0-2-2-3-3-2-2-0-0-2-2-2-2-|


  H        Q       S S S S S S S S S S S S S S S S  
----------------|----------------------------------|
----------------|----------------------------------|
----------------|--------------------------2-2-0-0-|
----------------|--2-2-3-3-3-2-2-3-3-2-2-2---------|


  S S S S S S S S S S S S S S S S    S S S S S S S S S S S S S S S S  
----------------------------------|----------------------------------|
----------------------------------|----------------------------------|
----------------------------------|----------------------------------|
--4-4-2-2-0-0-2-2-3-3-2-2-2-2-2-2-|--0-0-0-0-2-2-3-3-2-2-0-0-2-2-2-2-|


  H        Q       E  E  E  E  E  E  E  E     E  E  E  E  E  E  E  E   
----------------|--------------------------|--------------------------|
----------------|--------------------------|--------------------------|
----------------|--------------------------|--------------------------|
----------------|--4--4--4--4--4--4--4--4--|--1--1--1--1--0--0--0--0--|


  E  E  E  E  E  E  E  E     E  E  E  E  E  E  E  E   
--------------------------|--------------------------|
--------------------------|--------------------------|
--------------------------|--------------------------|
--4--4--4--4--4--4--4--4--|--1--1--1--1--0--0--0--0--|


  E  E  E  E  E  E  E  E     E  E  E  E  E  E  E  E   
--------------------------|--------------------------|
--------------------------|--------------------------|
--------------------------|--------------------------|
--4--4--4--4--4--4--4--4--|--1--1--1--1--0--0--0--0--|


  E  E  E  E  E  E  E  E     E  E  E  E  E  E  E  E   
--------------------------|--------------------------|
--------------------------|--------------------------|
--------------------------|--------------------------|
--4--4--4--4--4--4--4--4--|--1--1--1--1--0--0--0--0--|


  S S S S S S S S S S S S S S S S    S S S S S S S S S S S S S S S S  
----------------------------------|----------------------------------|
----------------------------------|----------------------------------|
--------------------------2-2-0-0-|----------------------------------|
--2-2-3-3-3-2-2-3-3-2-2-2---------|--4-4-2-2-0-0-2-2-3-3-2-2-2-2-2-2-|


  S S S S S S S S S S S S S S S S    H        Q     
----------------------------------|----------------|
----------------------------------|----------------|
----------------------------------|----------------|
--0-0-0-0-2-2-3-3-2-2-0-0-2-2-2-2-|----------------|


  S S S S S S S S S S S S S S S S    S S S S S S S S S S S S S S S S  
----------------------------------|----------------------------------|
----------------------------------|----------------------------------|
--------------------------2-2-0-0-|----------------------------------|
--2-2-3-3-3-2-2-3-3-2-2-2---------|--4-4-2-2-0-0-2-2-3-3-2-2-2-2-2-2-|


  S S S S S S S S S S S S S S S S    H        Q     
----------------------------------|----------------|
----------------------------------|----------------|
----------------------------------|----------------|
--0-0-0-0-2-2-3-3-2-2-0-0-2-2-2-2-|----------------|


  S S S S S S S S S S S S S S S S    S S S S S S S S S S S S S S S S  
----------------------------------|----------------------------------|
----------------------------------|----------------------------------|
--------------------------2-2-0-0-|----------------------------------|
--2-2-3-3-3-2-2-3-3-2-2-2---------|--4-4-2-2-0-0-2-2-3-3-2-2-2-2-2-2-|


  S S S S S S S S S S S S S S S S    H        Q     
----------------------------------|----------------|
----------------------------------|----------------|
----------------------------------|----------------|
--0-0-0-0-2-2-3-3-2-2-0-0-2-2-2-2-|----------------|


  S S S S S S S S S S S S S S S S    S S S S S S S S S S S S S S S S  
----------------------------------|----------------------------------|
----------------------------------|----------------------------------|
--------------------------2-2-0-0-|----------------------------------|
--2-2-3-3-3-2-2-3-3-2-2-2---------|--4-4-2-2-0-0-2-2-3-3-2-2-2-2-2-2-|


  S S S S S S S S S S S S S S S S    H        Q       E  E  E  E  H         
----------------------------------|----------------|-----------------------|
----------------------------------|----------------|-----------------------|
----------------------------------|----------------|-----------------------|
--0-0-0-0-2-2-3-3-2-2-0-0-2-2-2-2-|----------------|--0--0--0--0--1--------|


  E  E  E  E  Q    Q       H        H           H        Q    Q     
------------------------|--------------------|---------------------|
------------------------|--------------------|---------------------|
------------------------|-----------4--------|--3------------------|
--0--0--0--0--4----3----|--5-----------------|-----------4----1----|


  Q.     E   E   E  Q       Q    Q     E   E  Q       Q.     E  Q    Q      
-------------------------|-------------------------|-----------------------|
-------------------------|-------------------------|-----------------------|
-------------------------|-------------------------|-----------------------|
--0------0h--3p--0--0----|--L----0h----3p--0--0----|--1------0--1----3~----|


  Q    Q    Q    Q       Q.     E   E   E  Q       Q    Q     E   E  Q     
----------------------|-------------------------|-------------------------|
----------------------|-------------------------|-------------------------|
----------------------|-------------------------|-------------------------|
--L----4----3----1----|--0------0h--3p--0--0----|--L----0h----3p--0--0----|


  Q.     E  Q    Q        Q    Q    Q    Q       Q.     E   E   E  Q     
-----------------------|----------------------|-------------------------|
-----------------------|----------------------|-------------------------|
-----------------------|----------------------|-------------------------|
--1------0--1----3~----|--L----4----3----1----|--0------0h--3p--0--0----|


  Q    Q     E   E  Q       Q.     E  Q    Q        Q    Q    Q    Q     
-------------------------|-----------------------|----------------------|
-------------------------|-----------------------|----------------------|
-------------------------|-----------------------|----------------------|
--L----0h----3p--0--0----|--1------0--1----3~----|--L----4----3----1----|


  Q.     E   E   E  Q       Q    Q     E   E  Q       Q.     E  Q    Q      
-------------------------|-------------------------|-----------------------|
-------------------------|-------------------------|-----------------------|
-------------------------|-------------------------|-----------------------|
--0------0h--3p--0--0----|--L----0h----3p--0--0----|--1------0--1----3~----|


  Q    Q    Q    Q       E  S S S S E  E  S S S S E   
----------------------|------------------------------|
----------------------|------------------------------|
----------------------|---------------------------1--|
--L----4----3----1----|--0--0-0-0-0-1--0--0-0-0-0----|


  E  S S S S E  E  S S S S E     E  S S S S E  E  S S S S E   
------------------------------|------------------------------|
------------------------------|------------------------------|
------------------------------|------------------------------|
--0--0-0-0-0-1--0--0-0-0-0-3--|--0--0-0-0-0-1--0--0-0-0-0-1--|


  E  E  E  E  E  E  E  E     E  S S S S E  E  S S S S E   
--------------------------|------------------------------|
--------------------------|------------------------------|
--------------------------|---------------------------1--|
--0--0--1--3--4--3--1--3--|--0--0-0-0-0-1--0--0-0-0-0----|


  E  S S S S E  E  S S S S E     E  S S S S E  E  S S S S E   
------------------------------|------------------------------|
------------------------------|------------------------------|
------------------------------|------------------------------|
--0--0-0-0-0-1--0--0-0-0-0-3--|--0--0-0-0-0-1--0--0-0-0-0-1--|


  E  E  E  E  E  E  E  E     E  S S S S E  E  S S S S E   
--------------------------|------------------------------|
--------------------------|------------------------------|
--------------------------|---------------------------1--|
--0--0--1--3--4--3--1--3--|--0--0-0-0-0-1--0--0-0-0-0----|


  E  S S S S E  E  S S S S E     E  S S S S E  E  S S S S E   
------------------------------|------------------------------|
------------------------------|------------------------------|
------------------------------|------------------------------|
--0--0-0-0-0-1--0--0-0-0-0-3--|--0--0-0-0-0-1--0--0-0-0-0-1--|


  E  E  E  E  E  E  E  E     E  S S S S E  E  S S S S E   
--------------------------|------------------------------|
--------------------------|------------------------------|
--------------------------|---------------------------1--|
--0--0--1--3--4--3--1--3--|--0--0-0-0-0-1--0--0-0-0-0----|


  E  S S S S E  E  S S S S E     E  S S S S E  E  S S S S E   
------------------------------|------------------------------|
------------------------------|------------------------------|
------------------------------|------------------------------|
--0--0-0-0-0-1--0--0-0-0-0-3--|--0--0-0-0-0-1--0--0-0-0-0-1--|


  E  E  E  E  E  E  E  E     Q    H.             
--------------------------|--------------------||
--------------------------|--------------------||
--------------------------|--------------------||
--0--0--1--3--4--3--1--3--|--0-----------------||




Duration Legend
---------------
W - whole
H - half
Q - quarter
E - 8th
S - 16th
T - 32nd
X - 64th
. - note dotted
|-n-|  - n-tuplets


Tablature Legend
----------------
L - tied note
x - dead note
g - grace note
(n) - ghost note
> - accentuded note
NH - natural harmonic
AH - artificial harmonic
TH - tapped harmonic
SH - semi harmonic
PH - pitch harmonic
h - hammer on
p - pull off
b - bend
br - bendRelease
pb - preBend
pbr - preBendRelease
brb - bendReleaseBend
\n/ - tremolo bar dip
\n - tremolo bar dive
-/n - tremolo bar Release up
/n\ - tremolo bar inverted dip
/n - tremolo bar return
-\n - tremolo bar Release down
S - shift slide
s - legato slide
/ -  slide into from below or out of upwards
\ -  slide into from above or out of downwards
~ - vibrato
W - wide vibrato
tr - trill
TP - tremolo picking
T - tapping
S - slap
P - pop
< - fade in
^ - brush up
v - brush down





Comments


Popular Napalm Death tabs & chords
Kill Tabs
Kill 1 Tabs
Lowlife Tabs
Negative Approach Tabs
Repression Out Of Uniform Tabs
Scum Tabs
Suffer Little Children 1 Tabs
Suffer The Children Tabs
The Infiltraitor Tabs
Unchallenged Hate Tabs


Song lyrics



↑ Back to top | Tablatures and chords are parodies/interpretations of the original songs. You may use it for private study, scholarship, research or language learning purposes only
© 2014 AZChords.com Contact us | Privacy policy | DMCA | Add/correct tabs | Request tabs | Top 50 tabs