>
 >
If The Truth Be Known

If The Truth Be Known Bass Tabs

Napalm Death - If The Truth Be Known chords, tabs, tablatures, lyrics

Guitar lessons | Add/correct | Request | Top 50 tabs Artists:  A B C D E F G H I J K L M N O P Q R S T U V W X Y Z 0-9

If The Truth Be Known Bass Tabs – Napalm Death

CD, Sheet music, Poster

Do you like If The Truth Be Known? Share with your friends now
Bass TabsTabs
If The Truth Be Known                               
Napalm Death
Shane Embury (Bass)



             W                   W                   W                 
F||-------|-------------------|-------------------|-------------------|
C||-------|-------------------|-------------------|-------------------|
G||-------|-------------------|-------------------|-------------------|
D||-------|-------------------|-------------------|-------------------|


  W                   H        E  E  E  E     E  E  E  H        E   
-------------------|-----------------------|-----------------------|
-------------------|-----------------------|-----------------------|
-------------------|-----------------------|-----------------------|
-------------------|-----------0--0--0--0--|--1--0--0--4--------L--|


  E  E  E  E  E  E  E  E     E  E  E  H        E     E  E  E  E  E  E  E  E   
--------------------------|-----------------------|--------------------------|
--------------------------|-----------------------|--------------------------|
--------------------------|-----------1--------L--|--------------------------|
--3--2--0--2--0--0--0--0--|--1--0--0--------------|--3--2--0--2--0--0--0--0--|


  E  E  E  H        E     E  E  E  E  E  E  E  E     E  E  E  H        E   
-----------------------|--------------------------|-----------------------|
-----------------------|--------------------------|-----------------------|
-----------------------|--------------------------|-----------1--------L--|
--1--0--0--4--------L--|--3--2--0--2--0--0--0--0--|--1--0--0--------------|


  E  E  E  E  E  E  E  E     E  E  E  Q.     Q       E  E  E  E  E  E  E  E   
--------------------------|-----------------------|--------------------------|
--------------------------|-----------------------|--------------------------|
--------------------------|-----------4-----------|--------------------------|
--3--2--0--2--0--0--0--0--|--1--0--0---------3----|--3--2--0--2--0--0--0--0--|


  E  E  E  Q.     Q       E  E  E  E  E  E  E  E     E  E  E  Q.     Q     
-----------------------|--------------------------|-----------------------|
-----------------------|--------------------------|-----------------------|
-----------1-----------|--------------------------|-----------4-----------|
--1--0--0---------1----|--3--2--0--2--0--0--0--0--|--1--0--0---------3----|


  E  E  E  E  E  E  E  E     E  E  E  Q.     Q       E  E  E  E  E  E  E  E   
--------------------------|-----------------------|--------------------------|
--------------------------|-----------------------|--------------------------|
--------------------------|-----------1-----------|--------------------------|
--3--2--0--2--0--0--0--0--|--1--0--0---------1----|--3--2--0--2--0--0--0--0--|


  E  E  E  H        E     E  E  E  E  E  E  E  E     E  E  E  H        E   
-----------------------|--------------------------|-----------------------|
-----------------------|--------------------------|-----------------------|
-----------------------|--------------------------|-----------1--------L--|
--1--0--0--4--------L--|--3--2--0--2--0--0--0--0--|--1--0--0--------------|


  E  E  E  E  E  E  E  E     E  E  E  H        E     E  E  E  E  E  E  E  E   
--------------------------|-----------------------|--------------------------|
--------------------------|-----------------------|--------------------------|
--------------------------|-----------------------|--------------------------|
--3--2--0--2--0--0--0--0--|--1--0--0--4--------L--|--3--2--0--2--0--0--0--0--|


  E  E  E  H        E     E  E  E  E  E  E  E  E     E  E  E  Q.     Q     
-----------------------|--------------------------|-----------------------|
-----------------------|--------------------------|-----------------------|
-----------1--------L--|--------------------------|-----------4-----------|
--1--0--0--------------|--3--2--0--2--0--0--0--0--|--1--0--0---------3----|


  E  E  E  E  E  E  E  E     E  E  E  Q.     Q       E  E  E  E  E  E  E  E   
--------------------------|-----------------------|--------------------------|
--------------------------|-----------------------|--------------------------|
--------------------------|-----------1-----------|--------------------------|
--3--2--0--2--0--0--0--0--|--1--0--0---------1----|--3--2--0--2--0--0--0--0--|


  E  E  E  Q.     Q       E  E  E  E  E  E  E  E     E  E  E  Q.     Q     
-----------------------|--------------------------|-----------------------|
-----------------------|--------------------------|-----------------------|
-----------4-----------|--------------------------|-----------1-----------|
--1--0--0---------3----|--3--2--0--2--0--0--0--0--|--1--0--0---------1----|


  E  E  E  E  H           W                   Q    H.            
-----------------------|-------------------|--------------------|
-----------------------|-------------------|--------------------|
-----------------------|-------------------|--------------------|
--3--2--0--2--0--------|--L----------------|--0-----------------|


  H        Q    E  E     Q    H.              W                 
----------------------|--------------------|-------------------|
----------------------|--------------------|-------------------|
----------------6--5--|--------------------|-------------------|
----------------------|--0-----------------|-------------------|


  E  E  E  E  E  E  E  E     E  E  E  E  E  E  E  E   
--------------------------|--------------------------|
--------------------------|--------------------------|
-----2--5--1--4-----------|-----2-----1--4--1--6--5--|
--0--------------4--6--1--|--0-----3-----------------|


  E  E  E  E  E  E  E  E     E  E  E  E  E  E  E  E   
--------------------------|--------------------------|
--------------------------|--------------------------|
-----2--5--1--4-----------|-----2-----1--4--1--6--5--|
--0--------------4--6--1--|--0-----3-----------------|


  E  E  E  E  E  E  E  E     E  E  E  E  E  E  E  E   
--------------------------|--------------------------|
--------------------------|--------------------------|
-----2--5--1--4-----------|-----2-----1--4--1--6--5--|
--0--------------4--6--1--|--0-----3-----------------|


  E  E  E  E  E  E  E  E     E  E  E  E  E  E  E  E   
--------------------------|--------------------------|
--------------------------|--------------------------|
-----2--5--1--4-----------|-----2-----1--4--1--6--5--|
--0--------------4--6--1--|--0-----3-----------------|


  E  E  E  E  E  E  E  E     E  E  E  E  E  E  E  E   
--------------------------|--------------------------|
--------------------------|--------------------------|
-----2--5--1--4-----------|-----2-----1--4--1--6--5--|
--0--------------4--6--1--|--0-----3-----------------|


  E  E  E  E  E  E  E  E     E  E  E  E  E  E  E  E     H         
--------------------------|--------------------------|-----------|
--------------------------|--------------------------|-----------|
-----2--5--1--4-----------|-----2-----1--4--1--6--5--|-----------|
--0--------------4--6--1--|--0-----3-----------------|-----------|


  E  E  E  E  E  E  E  E     E  E  E  E  E  E  E  E   
--------------------------|--------------------------|
--------------------------|--------------------2--1--|
--------------------------|--2--2--------1--1--------|
--0--0--0--0--0--0--0--0--|--------3--3--------------|


  E  E  E  E  E  E  E  E     E  E  E  E  E  E  E  E   
--------------------------|--------------------------|
--------------------------|--------------------4--3--|
--------------------------|--2--2--------1--1--------|
--0--0--0--0--0--0--0--0--|--------3--3--------------|


  E  E  E  E  E  E  E  E     E  E  E  E  E  E  E  E   
--------------------------|--------------------------|
--------------------------|--------------------2--1--|
--------------------------|--2--2--------1--1--------|
--0--0--0--0--0--0--0--0--|--------3--3--------------|


  E  E  E  E  E  E  E  E     E  E  E  E  E  E  E  E   
--------------------------|--------------------------|
--------------------------|--------------------4--3--|
--------------------------|--2--2--------1--1--------|
--0--0--0--0--0--0--0--0--|--------3--3--------------|


  E  E  E  E  E  E  E  E     E  E  E  E  E  E  E  E   
--------------------------|--------------------------|
--------------------------|--------------------2--1--|
--------------------------|--2--2--------1--1--------|
--0--0--0--0--0--0--0--0--|--------3--3--------------|


  E  E  E  E  E  E  E  E     E  E  E  E  E  E  E  E   
--------------------------|--------------------------|
--------------------------|--------------------4--3--|
--------------------------|--2--2--------1--1--------|
--0--0--0--0--0--0--0--0--|--------3--3--------------|


  E  E  E  E  E  E  E  E     E  E  E  E  E  E  E  E   
--------------------------|--------------------------|
--------------------------|--------------------2--1--|
--------------------------|--2--2--------1--1--------|
--0--0--0--0--0--0--0--0--|--------3--3--------------|


  E  E  E  E  E  E  E  E     E  E  E  E  E  E  E  E   
--------------------------|--------------------------|
--------------------------|--------------------4--3--|
--------------------------|--2--2--------1--1--------|
--0--0--0--0--0--0--0--0--|--------3--3--------------|


  E  E  E  E  E  E  E  E     E  E  E  E  E  E  E  E   
--------------------------|--------------------------|
--------------------------|--------------------------|
--------------------------|--------------------3-----|
--0--0--0-----6--3--6-----|--0--0--0-----6--3--------|


  E  E  E  E  E  E  E  E     E  E  E  E  E  E  E  E   
--------------------------|--------------------------|
--------------------------|--------------------------|
--------------------------|--1--1--1-----1-----------|
--0--0--0-----6--3--6-----|-----------------3--3-----|


  E  E  E  E  E  E  E  E     E  E  E  E  E  E  E  E   
--------------------------|--------------------------|
--------------------------|--------------------------|
--------------------------|--------------------3-----|
--0--0--0-----6--3--6-----|--0--0--0-----6--3--------|


  E  E  E  E  E  E  E  E     E  E  E  E  E  E  E  E   
--------------------------|--------------------------|
--------------------------|--------------------------|
--------------------------|--1--1--1-----1-----------|
--0--0--0-----6--3--6-----|-----------------3--3-----|


  E  E  E  E  E  E  E  E     E  E  E  E  E  E  E  E   
--------------------------|--------------------------|
--------------------------|--------------------2--1--|
--------------------------|--2--2--------1--1--------|
--0--0--0--0--0--0--0--0--|--------3--3--------------|


  E  E  E  E  E  E  E  E     E  E  E  E  E  E  E  E   
--------------------------|--------------------------|
--------------------------|--------------------4--3--|
--------------------------|--2--2--------1--1--------|
--0--0--0--0--0--0--0--0--|--------3--3--------------|


  E  E  E  E  E  E  E  E     E  E  E  E  E  E  E  E   
--------------------------|--------------------------|
--------------------------|--------------------2--1--|
--------------------------|--2--2--------1--1--------|
--0--0--0--0--0--0--0--0--|--------3--3--------------|


  E  E  E  E  E  E  E  E     E  E  E  E  E  E  E  E   
--------------------------|--------------------------|
--------------------------|--------------------4--3--|
--------------------------|--2--2--------1--1--------|
--0--0--0--0--0--0--0--0--|--------3--3--------------|


  E  E  E  E  E  E  E  E     E  E  E  E  E  E  E  E   
--------------------------|--------------------------|
--------------------------|--------------------2--1--|
--------------------------|--2--2--------1--1--------|
--0--0--0--0--0--0--0--0--|--------3--3--------------|


  E  E  E  E  E  E  E  E     E  E  E  E  E  E  E  E   
--------------------------|--------------------------|
--------------------------|--------------------4--3--|
--------------------------|--2--2--------1--1--------|
--0--0--0--0--0--0--0--0--|--------3--3--------------|


  E  E  E  E  E  E  E  E     E  E  E  E  E  E  E  E   
--------------------------|--------------------------|
--------------------------|--------------------2--1--|
--------------------------|--2--2--------1--1--------|
--0--0--0--0--0--0--0--0--|--------3--3--------------|


  E  E  E  E  E  E  E  E     E  E  E  E  E  E  E  E   
--------------------------|--------------------------|
--------------------------|--------------------4--3--|
--------------------------|--2--2--------1--1--------|
--0--0--0--0--0--0--0--0--|--------3--3--------------|


  E  E  E  E  E  E  E  E     E  E  E  E  E  E  E  E   
--------------------------|--------------------------|
--------------------------|--------------------------|
--------------------------|--------------------3-----|
--0--0--0-----6--3--6-----|--0--0--0-----6--3--------|


  E  E  E  E  E  E  E  E     E  E  E  E  E  E  E  E   
--------------------------|--------------------------|
--------------------------|--------------------------|
--------------------------|--1--1--1-----1-----------|
--0--0--0-----6--3--6-----|-----------------3--3-----|


  E  E  E  E  E  E  E  E     E  E  E  E  E  E  E  E   
--------------------------|--------------------------|
--------------------------|--------------------------|
--------------------------|--------------------3-----|
--0--0--0-----6--3--6-----|--0--0--0-----6--3--------|


                                         |----3----|                           
  E  E  E  E  E  E  E  E     E  E  E  E  Q    Q    Q       E  H.           E   
--------------------------|-----------------------------|---------------------|
--------------------------|-----------------------------|---------------------|
--------------------------|--1--1--1--1--1--------------|---------------------|
--0--0--0-----6--3--6-----|-------------------3----3----|--0------------------|


  E  Q    E  E  E  E  E     W                   Q     E   E  E  E  E  E   
-------------------------|-------------------|---------------------------|
-------------------------|-------------------|---------------------------|
-------------------------|-------------------|---------------------------|
----------2--3--5--1--0--|-------------------|-------11\--0--2--3--5--1--|


  E  E  E  E  E  E  E  E     E  E  E  E  E  E  E  E   
--------------------------|--------------------------|
--------------------------|--------------------------|
-----------1--------------|-----------1--------4--3--|
--0--0--0-----0--0--1--3--|--0--0--0-----0--0--------|


  E  E  E  E  E  E  E  E     E  E  E  E  E  E  E  E   
--------------------------|--------------------------|
--------------------------|--------------------------|
-----------1--------------|-----------2--1-----------|
--0--0--0-----0--0--1--3--|--0--0--0--------2--5--1--|


  E  E  E  E  E  E  E  E     E  E  E  E  E  E  E  E   
--------------------------|--------------------------|
--------------------------|--------------------------|
-----------1--------------|-----------1--------4--3--|
--0--0--0-----0--0--1--3--|--0--0--0-----0--0--------|


  E  E  E  E  E  E  E  E     E  E  E  E  E  E  E  E     Q    E  E  Q    Q     
--------------------------|--------------------------|-----------------------|
--------------------------|--------------------------|-----------------------|
-----------1--------------|-----------2--1-----------|--7----------6---------|
--0--0--0-----0--0--1--3--|--0--0--0--------2--5--1--|-------5--6-------6----|


  Q    E  E  Q    Q       Q    E  E  Q    Q       Q    E  E  Q    Q     
-----------------------|-----------------------|-----------------------|
-----------------------|-----------------------|-----------------------|
--7----------6---------|--7----------6---------|--7----------6---------|
-------5--6-------6----|-------5--6-------6----|-------5--6-------6----|


  Q    E  E  Q    Q       Q    E  E  Q    Q       Q    E  E  Q    Q     
-----------------------|-----------------------|-----------------------|
-----------------------|-----------------------|-----------------------|
--7----------6---------|--7----------6---------|--7----------6---------|
-------5--6-------6----|-------5--6-------6----|-------5--6-------6----|


  Q    E  E  E  E  E  E     E  H.           E     E  Q    E  E  E  E  E   
-------------------------|---------------------|-------------------------|
-------------------------|---------------------|-------------------------|
--7----------------------|---------------------|-------------------------|
-------5--6--2--3--5--1--|--0------------------|----------2--3--5--1--0--|


  W                   Q     E   E  E  E  E  E     E  E  E  E  E  E  E  E   
-------------------|---------------------------|--------------------------|
-------------------|---------------------------|--------------------------|
-------------------|---------------------------|-----------1--------------|
-------------------|-------11\--0--2--3--5--1--|--0--0--0-----0--0--1--3--|


  E  E  E  E  E  E  E  E     E  E  E  E  E  E  E  E   
--------------------------|--------------------------|
--------------------------|--------------------------|
-----------1--------4--3--|-----------1--------------|
--0--0--0-----0--0--------|--0--0--0-----0--0--1--3--|


  E  E  E  E  E  E  E  E     E  E  E  E  E  E  E  E   
--------------------------|--------------------------|
--------------------------|--------------------------|
-----------2--1-----------|-----------1--------------|
--0--0--0--------2--5--1--|--0--0--0-----0--0--1--3--|


  E  E  E  E  E  E  E  E     E  E  E  E  E  E  E  E   
--------------------------|--------------------------|
--------------------------|--------------------------|
-----------1--------4--3--|-----------1--------------|
--0--0--0-----0--0--------|--0--0--0-----0--0--1--3--|


  E  E  E  E  E  E  E  E     Q    E  E  Q    Q       Q    E  E  Q    Q     
--------------------------|-----------------------|-----------------------|
--------------------------|-----------------------|-----------------------|
-----------2--1-----------|--7----------6---------|--7----------6---------|
--0--0--0--------2--5--1--|-------5--6-------6----|-------5--6-------6----|


  Q    E  E  Q    Q       Q    E  E  Q    Q       Q    E  E  Q    Q     
-----------------------|-----------------------|-----------------------|
-----------------------|-----------------------|-----------------------|
--7----------6---------|--7----------6---------|--7----------6---------|
-------5--6-------6----|-------5--6-------6----|-------5--6-------6----|


  Q    E  E  Q    Q       Q    E  E  Q    Q       Q    E  E  E  E  E  E   
-----------------------|-----------------------|-------------------------|
-----------------------|-----------------------|-------------------------|
--7----------6---------|--7----------6---------|--7----------------------|
-------5--6-------6----|-------5--6-------6----|-------5--6--2--3--5--1--|


  E  Q    E  Q    E  E     E  Q    E  Q    E  E     E  Q    E  Q    E  E   
------------------------|------------------------|------------------------|
------------------------|------------------------|------------------------|
------------------------|-------------4----3--6--|------------------------|
--0--0----6--4----3--4--|--1--1----1-------------|--0--0----6--4----3--4--|


  E  Q    E  Q    E  E     E  Q    E  Q    E  E     E  Q    E  Q    E  E   
------------------------|------------------------|------------------------|
------------------------|------------------------|------------------------|
------------------------|------------------------|-------------4----3--6--|
--1--1----1--3----4--3--|--0--0----6--4----3--4--|--1--1----1-------------|


  E  Q    E  Q    E  E     Q    Q    Q    E  E     E  Q    E  Q    E  E   
------------------------|-----------------------|------------------------|
------------------------|-----------------------|------------------------|
------------------------|-----------------------|------------------------|
--0--0----6--4----3--4--|--1----1----3----4--3--|--0--0----6--4----3--4--|


  E  Q    E  Q    E  E     E  Q    E  Q    E  E     E  Q    E  Q    E  E   
------------------------|------------------------|------------------------|
------------------------|------------------------|------------------------|
-------------4----3--6--|------------------------|------------------------|
--1--1----1-------------|--0--0----6--4----3--4--|--1--1----1--3----4--3--|


  E  Q    E  Q    E  E     E  Q    E  Q    E  E     E  Q    E  Q    E  E   
------------------------|------------------------|------------------------|
------------------------|------------------------|------------------------|
------------------------|-------------4----3--6--|------------------------|
--0--0----6--4----3--4--|--1--1----1-------------|--0--0----6--4----3--4--|


  Q    Q    Q    E  E     E  H        Q    E     W                 
-----------------------|----------------------|-------------------|
-----------------------|----------------------|-------------------|
-----------------------|----------------------|-------------------|
--1----1----3----4--3--|--0-------------------|-------------------|


  W                   E  S S S S E  E  E  E  E     E  E  E  E  E  E  E  E   
-------------------|----------------------------|--------------------------|
-------------------|----------------------------|--------------------------|
-------------------|-------------2-----1--------|-----------2-----1--------|
-------------------|----------------------3--1--|--0--0--0-----0-----1--3--|


  E  E  E  E  E  E  E  E     E  E  E  E  E  E  E  E   
--------------------------|--------------------------|
--------------------------|--------------------------|
-----------2-----1--------|-----------2-----1--------|
--0--0--0-----0-----3--1--|--0--0--0-----0-----1--3--|


  E  E  E  E  E  E  E  E     E  E  E  E  E  E  E  E   
--------------------------|--------------------------|
--------------------------|--------------------------|
-----------2-----1--------|-----------2-----1--------|
--0--0--0-----0-----3--1--|--0--0--0-----0-----1--3--|


  E  E  E  E  E  E  E  E     E  E  E  E  E  E  E  E   
--------------------------|--------------------------|
--------------------------|--------------------------|
-----------2-----1--------|-----------2-----1--------|
--0--0--0-----0-----3--1--|--0--0--0-----0-----1--3--|


  E  E  E  E  E  E  E  E     S S S S S S S S S S S S S S S S  
--------------------------|----------------------------------|
--------------------------|----------------------------------|
-----------2-----1--------|----------------------------------|
--0--0--0-----0-----3--1--|--0-0-0-0-0-0-0-0-0-0-0-0-0-0-0-0-|


  S S S S S S S S S S S S S S S S    S S S S S S S S S S S S S S S S  
----------------------------------|----------------------------------|
----------------------------------|----------------------------------|
----------------------------------|----------------------------------|
--0-0-0-0-0-0-0-0-0-0-0-0-0-0-0-0-|--0-0-0-0-0-0-0-0-0-0-0-0-0-0-0-0-|


  S S S S S S S S S S S S S S S S    S S S S S S S S S S S S S S S S  
----------------------------------|----------------------------------|
----------------------------------|----------------------------------|
----------------------------------|----------------------------------|
--0-0-0-0-0-0-0-0-0-0-0-0-0-0-0-0-|--0-0-0-0-0-0-0-0-0-0-0-0-0-0-0-0-|


  S S S S S S S S S S S S S S S S    S S S S S S S S S S S S S S S S  
----------------------------------|----------------------------------|
----------------------------------|----------------------------------|
----------------------------------|----------------------------------|
--0-0-0-0-0-0-0-0-0-0-0-0-0-0-0-0-|--0-0-0-0-0-0-0-0-0-0-0-0-0-0-0-0-|


  S S S S S S S S S S S S S S S S    E  E  E  E  E  E  E  E   
----------------------------------|--------------------------|
----------------------------------|--------------------------|
----------------------------------|-----------2-----1--------|
--0-0-0-0-0-0-0-0-0-0-0-0-0-0-0-0-|--0--0--0-----0-----1--3--|


  E  E  E  E  E  E  E  E     E  E  E  E  E  E  E  E   
--------------------------|--------------------------|
--------------------------|--------------------------|
-----------2-----1--------|-----------2-----1--------|
--0--0--0-----0-----3--1--|--0--0--0-----0-----1--3--|


  E  E  E  E  E  E  E  E     E  E  E  E  E  E  E  E   
--------------------------|--------------------------|
--------------------------|--------------------------|
-----------2-----1--------|-----------2-----1--------|
--0--0--0-----0-----3--1--|--0--0--0-----0-----1--3--|


  E  E  E  E  E  E  E  E     E  E  E  E  E  E  E  E   
--------------------------|--------------------------|
--------------------------|--------------------------|
-----------2-----1--------|-----------2-----1--------|
--0--0--0-----0-----3--1--|--0--0--0-----0-----1--3--|


  E  E  E  E  E  E  E  E     E  E  E  E  E  E  E  E   
--------------------------|--------------------------|
--------------------------|--------------------------|
-----------2-----1--------|-----2--5--1--4-----------|
--0--0--0-----0-----3--1--|--0--------------4--6--1--|


  E  E  E  E  E  E  E  E     E  E  E  E  E  E  E  E   
--------------------------|--------------------------|
--------------------------|--------------------------|
-----2-----1--4--1--6--5--|-----2--5--1--4-----------|
--0-----3-----------------|--0--------------4--6--1--|


  E  E  E  E  E  E  E  E     E  E  E  E  E  E  E  E   
--------------------------|--------------------------|
--------------------------|--------------------------|
-----2-----1--4--1--6--5--|-----2--5--1--4-----------|
--0-----3-----------------|--0--------------4--6--1--|


  E  E  E  E  E  E  E  E     E  E  E  E  E  E  E  E   
--------------------------|--------------------------|
--------------------------|--------------------------|
-----2-----1--4--1--6--5--|-----2--5--1--4-----------|
--0-----3-----------------|--0--------------4--6--1--|


  E  E  E  E  E  E  E  E     Q    H        Q      
--------------------------|---------------------||
--------------------------|---------------------||
-----2-----1--4--1--6--5--|---------------------||
--0-----3-----------------|--0------------------||




Duration Legend
---------------
W - whole
H - half
Q - quarter
E - 8th
S - 16th
T - 32nd
X - 64th
. - note dotted
|-n-|  - n-tuplets


Tablature Legend
----------------
L - tied note
x - dead note
g - grace note
(n) - ghost note
> - accentuded note
NH - natural harmonic
AH - artificial harmonic
TH - tapped harmonic
SH - semi harmonic
PH - pitch harmonic
h - hammer on
p - pull off
b - bend
br - bendRelease
pb - preBend
pbr - preBendRelease
brb - bendReleaseBend
\n/ - tremolo bar dip
\n - tremolo bar dive
-/n - tremolo bar Release up
/n\ - tremolo bar inverted dip
/n - tremolo bar return
-\n - tremolo bar Release down
S - shift slide
s - legato slide
/ -  slide into from below or out of upwards
\ -  slide into from above or out of downwards
~ - vibrato
W - wide vibrato
tr - trill
TP - tremolo picking
T - tapping
S - slap
P - pop
< - fade in
^ - brush up
v - brush down





Comments


Popular Napalm Death tabs & chords
Breed To Breathe Bass Tabs
Greed Killing Bass Tabs
Nazi Punks Fuck Off 2 Bass Tabs
If The Truth Be Known Tabs
Kill 1 Tabs
Next To Kin To Chaos Tabs
Prison Without Walls Tabs
Reflect On Conflict Tabs
Section Tabs
You Suffer Tabs


Song lyrics



↑ Back to top | Tablatures and chords are parodies/interpretations of the original songs. You may use it for private study, scholarship, research or language learning purposes only
© 2014 AZChords.com Contact us | Privacy policy | DMCA | Add/correct tabs | Request tabs | Top 50 tabs