>
 >
If The Truth Be Known

If The Truth Be Known Guitar Tabs

Napalm Death - If The Truth Be Known chords, tabs, tablatures, lyrics

Guitar lessons | Add/correct | Request | Top 50 tabs Artists:  A B C D E F G H I J K L M N O P Q R S T U V W X Y Z 0-9

If The Truth Be Known Guitar Tabs – Napalm Death

CD, Sheet music, Poster

Do you like If The Truth Be Known? Share with your friends now
Bass TabsTabs
       N A P A L M  D E A T H - I F  T H E  T R U T H  B E  K N O W N
                       From the Album HARMONY CORRUPTION
                         Copyright 1990 EARACHE RECORDS

                              Version 1.0 - MAY '02


For Questions, Comments, Newest Version, or Corrections contact





.  - palm mute                  /  - slide up to
\  - slide down to              ~  - vibrato
"  - tremelo picking           ( ) - ghost note
b  - bend                       h  - hammer-on
fb - full bend (1 step)         p  - pull-off
hb - half bend (1/2 step)       r  - release a bend
t  - tapping                    ah - artificial harmonic

Tune Gtr to D

--IF THE TRUTH BE KNOWN--

[Intro]
[-----------------------------------------]
[-----------------------------------------]
[*---------------------------------------*]GTR 1
[*---------------------------------------*] 
[--5\4--3/4--------------3--------6-------]
[--3\2--1/2--0--0--0--0--1--0--0--4-------]
    sl   sl  .  .  .  .     .  .        

[-----------------------------------------]
[-----------------------------------------]
[*---------------------------------------*]GTR 1
[*--------------------------------3------*] 
[--5\4--3/4--------------3--------1-------]
[--3\2--1/2--0--0--0--0--1--0--0----------]
    sl   sl  .  .  .  .     .  .

[-------------]
[-------------]
[*-----------*]GTR 1
[*-----------*]
[--6\5--3/4---]
[--4\3--1/2---]
    sl   sl


[Riff A]
[-----------------------------------------]
[-----------------------------------------]
[*---------------------------------------*]GTRS 1&2
[*---------------------------------------*]
[--3-----------3--------6------5\4--3/4---]
[--1--0--0--0--1--0--0--4------3\2--1/2---]
      .  .  .     .  .          sl   sl

[-----------------------------------------]
[-----------------------------------------]
[*---------------------------------------*]GTRS 1&2
[*----------------------3----------------*]
[--3-----------3--------1------6\5--3/4---]
[--1--0--0--0--1--0--0---------4\3--1/2---]
      .  .  .     .  .          sl   sl


[Riff A.1]
[-----------------------------------------]
[-----------------------------------------]
[*---------------------------------------*]GTRS 1&2
[*---------------------------------------*]
[--------------3--------6------5\4--3/4---]
[--0--0--0--0--1--0--0--4------3\2--1/2---]
   .  .  .  .     .  .          sl   sl

[-----------------------------------------]
[-----------------------------------------]
[*---------------------------------------*]GTRS 1&2
[*----------------------3----------------*]
[--------------3--------1------6\5--3/4---]
[--0--0--0--0--1--0--0---------4\3--1/2---]
   .  .  .  .     .  .          sl   sl


[Riff A.2]
[-------------------------------------------|-------------------------]
[-------------------------------------------|-------------------------]
[*------------------------------------------|------------------------*]GTRS 1&2
[*----------------------6-------------------|----------------------3-*] 
[--------------3--------4------6--5\4--3/4--|-------------3--------1--]
[--0--0--0--0--1--0--0---------4--3\2--1/2--|-0--0--0--0--1--0--0-----]
   .  .  .  .     .  .             sl   sl    .  .  .  .     .  .

[-------------------]
[-------------------]
[*-----------------*]GTRS 1&2
[*-----------------*]
[-----3--5\4--3/4---]
[-----1--3\2--1/2---]
          sl   sl


Play Riff A.2 1 time
Play Riff A.1 2 times
Play Riff A.2 2 times


[Fill 1]
[----------]
[----------]
[*--------*]GTRS 1&2
[*--------*] 
[--2-(2)---]
[--0-(0)---]


[Riff B]
[--------------------------|----------------------------]
[--------------------------|----------------------------]
[*-------------------------|---------------------------*]GTR 1
[*----------3--6-----3-----|----------3--6-----/10--9--*] 
[-----3--5--1--4--5--1--4--|----3--5--1--4--5--/8---7---]
[--0--1--3--------3-----2--|-0--1--3--------3--sl-------]

[--------------------------|----------------------------]
[--------------------------|----------------------------]
[*-------------------------|---------------------------*]GTR 2
[*-------------------------|--------------------10--9--*]
[--2-----------------------|--------------------8---7---]
[--0-----------------------|----------------------------]

[--------------------------|----------------------------]
[--------------------------|----------------------------]
[*-------------------------|---------------------------*]GTR 1
[*----------3--6-----3-----|----------3--6-----/10--9--*] 
[-----3--5--1--4--5--1--4--|----3--5--1--4--5--/8---7---]
[--0--1--3--------3-----2--|-0--1--3--------3--sl-------]

[--------------------------|----------------------------]
[--------------------------|----------------------------]
[*-------------------------|---------------------------*]GTR 2
[*-------------------------|--------------------10--9--*]
[--2-----------------------|--------------------8---7---]
[--0-----------------------|----------------------------]


[Riff B.1]
[---------------------------|-----------------------------]
[---------------------------|-----------------------------]
[*--------------------------|----------------------------*]GTRS 1&2
[*-----------3--6-----3-----|-----------3--6-----/10--9--*] 
[------3--5--1--4--5--1--4--|-----3--5--1--4--5--/8---7---]
[--0"--1--3--------3-----2--|-0"--1--3--------3--sl-------]

[---------------------------|-----------------------------]
[---------------------------|-----------------------------]
[*--------------------------|----------------------------*]GTRS 1&2
[*-----------3--6-----3-----|-----------3--6-----/10--9--*] 
[------3--5--1--4--5--1--4--|-----3--5--1--4--5--/8---7---]
[--0"--1--3--------3-----2--|-0"--1--3--------3--sl-------]


Play Riff B.1 1 time


[Riff B.2]
[---------------------------|-----------------------------]
[---------------------------|-----------------------------]
[*--------------------------|----------------------------*]GTRS 1&2
[*-----------3--6-----3-----|-----------3--6-----/10--9--*] 
[------3--5--1--4--5--1--4--|-----3--5--1--4--5--/8---7---]
[--0"--1--3--------3-----2--|-0"--1--3--------3--sl-------]

[---------------------------|-----------------------------]
[---------------------------|-----------------------------]
[*--------------------------|----------------------------*]GTRS 1&2
[*-----------3--6-----3-----|-----------3--6-----/10--9--*] 
[------3--5--1--4--5--1--4--|-----3--5--1--4--5--/8---7---]
[--0"--1--3--------3-----2--|-0"--1--3--------3--sl---*---]
                                                   [Pause]


[Riff C]
[-------------------------|-------------------------]
[-------------------------|-------------------------]
[*------------------------|------------------------*]GTRS 1&2
[*------------------------|------------------------*]
[-------------------------|-2"----------1"----5__4--]
[--0"---------------------|-------3"------------p---]

[-------------------------|-------------------------]
[-------------------------|-------------------------]
[*------------------------|------------------------*]GTRS 1&2
[*------------------------|-------------------3__2-*]
[-------------------------|-2"----------1"------p---]
[--0"---------------------|-------3"----------------]

[-------------------------|-------------------------]
[-------------------------|-------------------------]
[*------------------------|------------------------*]GTRS 1&2
[*------------------------|------------------------*]
[-------------------------|-2"----------1"----5__4--]
[--0"---------------------|-------3"------------p---]

[-------------------------|-------------------------]
[-------------------------|-------------------------]
[*------------------------|------------------------*]GTRS 1&2
[*------------------------|-------------------3__2-*]
[-------------------------|-2"----------1"------p---]
[--0"---------------------|-------3"----------------]


Play Riff C 1 time


[Riff D]
[-------------------------------|----------------------------------]
[-------------------------------|----------------------------------]
[*------------------------------|---------------------------------*]GTRS 1&2
[*-----------3----36------------|----3----36---------------3---36-*] 
[--2--2------1--5-14-33--2--2---|----1--5-14-33--2--2------1-5-14--]
[--0--0---0"----3----11--0--0---|-0"----3----11--0--0---0"---3-----]

[-------------------------------]
[-------------------------------]
[*-----------------------------*]GTRS 1&2
[*----33--3--------------------*] 
[--55-11--1------33-66--6-------]
[--33------------11-44--4-------]


Play Riff D 1 time
Play Riff C 2 times
Play Riff D 1.75 times


[Fill 2]
[-------------------------------]
[-------------------------------]
[*-----------------------------*]GTRS 1&2
[*----33--3--------------------*] 
[--55-11--1------6---6---6------]
[--33------------4---4---4------]


[Riff E]
[----------------------|-------------------------]
[----------------------|-------------------------]
[*---------------------|------------------------*]GTR 1
[*-------3-----6\3-----|-------3----------------*]
[--------1--4--4\1--5--|-------1--4--2--3--6\3---]
[--0"-------2---sl--3--|-0"-------2--0--1--4\1---]
                                            sl

[----------------------|-------------------------]
[----------------------|-------------------------]
[*---------------------|------------------------*]GTR 2
[*---------------------|------------------------*] 
[--2-------------------|-------------2--3--6-3---]
[--0-------------------|-------------0--1--4-1---]
                                            

[----------------------|-------------------------]
[----------------------|-------------------------]
[*---------------------|------------------------*]GTR 1
[*-------3-----6\3-----|-------3----------------*]
[--------1--4--4\1--5--|-------1--4--2--3--6\3---]
[--0"-------2---sl--3--|-0"-------2--0--1--4\1---]
                                            sl

[----------------------|-------------------------]
[----------------------|-------------------------]
[*---------------------|------------------------*]GTR 2
[*---------------------|------------------------*] 
[--2-------------------|-------------2--3--6-3---]
[--0-------------------|-------------0--1--4-1---]
                                            

Play Riff E 2 times (both guitars)


[Riff F]
[----------------------|------------------------]
[----------------------|------------------------]
[*---------------------|-----------------------*]GTRS 1&2
[*---------------------|-----------------------*]
[--7"----6"5"----------|-8"7"----6"5"-----------]
[---------------6"-----|----------------6"------]

[----------------------|------------------------]
[----------------------|------------------------]
[*---------------------|-----------------------*]GTRS 1&2
[*---------------------|-----------------------*]
[--7"----6"5"----------|-8"7"----6"5"-----------]
[---------------6"-----|----------------6"------]


Play Riff F 1 time


[Riff E.1]
[----------------------|-------------------------]
[----------------------|-------------------------]
[*---------------------|------------------------*]GTR 1
[*-------3-----6\3-----|-------3----------------*]
[--------1--4--4\1--5--|-------1--4--2--3--6\3---]
[--0"-------2---sl--3--|-0"-------2--0--1--4\1---]
                                            sl

[----------------------|-------------------------]
[----------------------|-------------------------]
[*---------------------|------------------------*]GTR 2
[*---------------------|------------------------*] 
[--2-------------------|-------------2--3--6-3---]
[--0-------------------|-------------0--1--4-1---]
                                            

[----------------------|-------------------------]
[----------------------|-------------------------]
[*---------------------|------------------------*]GTR 1
[*-------3-----6\3-----|-------3----------------*]
[--------1--4--4\1--5--|-------1--4--2--3--6\3---]
[--0"-------2---sl--3--|-0"-------2--0--1--4\1---]
                                            sl

[----------------------|-------------------------]
[----------------------|-------------------------]
[*---------------------|------------------------*]GTR 2
[*---------------------|------------------------*] 
[--2-------------------|-------------2--3--6-3---]
[--0-------------------|-------------0--1--4-1---]


Play Riff E.1 2 times (both guitars)
Play Riff F   2 times


[Riff G]
[--------------------|-------------------|--------------------]
[--------------------|-------------------|--------------------]
[*-------------------|-------------------|-------------------*]GTRS 1&2
[*-------------------|--------3--6--5/6--|-------------------*] 
[--22-2---3--6--5/6--|-33-3---1--4--3/4--|-22-2---3--6--5/6---]
[--00-0---1--4--3/4--|-11-1----------sl--|-00-0---1--4--3/4---]
                 sl                                      sl
 ____________________ ________________________________________
|1.                  |2.                                      |
[--------------------|----------------------------------------]
[--------------------|----------------------------------------]
[*-------------------|---------------------------------------*]GTRS 1&2
[*--------6\5/6------|---------------------------------------*]
[--33-3---4\3/4--5/6-|-3---3---3---6\5--6---6---6-------------]
[--11-1-----sl---3/4-|-1---1---1---4\3--4---4---4-------------]
                  sl                sl


Play Riff G 1 time


[Riff H]
[---------------------------|---------------------------]
[---------------------------|---------------------------]
[*--------------------------|--------------------------*]GTR 1
[*---------3----------------|---------3----------------*] 
[--2-------1-------3--5--6--|-2-------1-------6--5--3---]
[--0--0"------0"---1--3--4--|-0--0"------0"---4--3--1---]
      .       .                  .       .

[---------------------------|---------------------------]
[---------------------------|---------------------------]
[*--------------------------|--------------------------*]GTR 2
[*--------------------------|--------------------------*]
[--2------------------------|---------------------------]
[--0------------------------|---------------------------]


[---------------------------|---------------------------]
[---------------------------|---------------------------]
[*--------------------------|--------------------------*]GTR 1
[*---------3----------------|---------6----------------*] 
[--2-------1-------3--5--6--|-2-------4-------6--5--3---]
[--0--0"------0"---1--3--4--|-0--0"------0"---4--3--1---]
      .       .                  .       .

[---------------------------|---------------------------]
[---------------------------|---------------------------]
[*--------------------------|--------------------------*]GTR 2
[*--------------------------|---------6----------------*] 
[---------------------------|---------4-------6--5--3---]
[---------------------------|------------0"---4--3--1---]
                                         .


Play Riff H 2 times (both guitars)


[Riff I]
[----------------------------------|----------------------------------]
[----------------------------------|----------------------------------]
[*---------------------------------|---------------------------------*]GTRS 1&2
[*---------------------------------|-----------------9"------8"------*]
[----------8"----------------------|---------7"-----------------------]
[--0"--------------7"------6"------|-0"-------------------------------]

[----------------------------------|----------------------------------]
[----------------------------------|----------------------------------]
[*---------------------------------|---------------------------------*]GTRS 1&2
[*---------------------------------|---------------------------------*]
[----------7"----------------------|-8"-------------------------------]
[--0"--------------6"------5"------|---------7"------6"------5"-------]


Play Riff I 1 time
Play Riff H 2 times (over solo)


[Fill 3]
[--------]
[--------]
[*------*]GTRS 1&2
[*------*]
[--------]
[--0"----]


[Riff B.3]
[---------------------------|-----------------------------]
[---------------------------|-----------------------------]
[*--------------------------|----------------------------*]GTRS 1&2
[*-----------3--6-----3-----|-----------3--6-----/10--9--*] 
[------3--5--1--4--5--1--4--|-----3--5--1--4--5--/8---7---]
[--0"--1--3--------3-----2--|-0"--1--3--------3--sl-------]

[---------------------------|-----------------------------]
[---------------------------|-----------------------------]
[*--------------------------|----------------------------*]GTRS 1&2
[*-----------3--6-----3-----|-----------3--6-----/10--9--*] 
[------3--5--1--4--5--1--4--|-----3--5--1--4--5--/8---7---]
[--0"--1--3--------3-----2--|-0"--1--3--------3--sl-------]


Play Riff B.3 1 time


[Ending]
[------]
[------]
[*----*]GTRS 1&2
[*----*] 
[--2---]
[--0---]





Comments


Popular Napalm Death tabs & chords
Necessary Evil Bass Tabs
On The Brink Of Extinction 2 Bass Tabs
Vision Conquest Bass Tabs
World Keeps Turning Bass Tabs
Hung Tabs
I Abstain Tabs
Inside The Torn Apart Tabs
Necesarry Evil Tabs
Negative Approach Tabs
Social Sterility Tabs


Song lyrics



↑ Back to top | Tablatures and chords are parodies/interpretations of the original songs. You may use it for private study, scholarship, research or language learning purposes only
© 2014 AZChords.com Contact us | Privacy policy | DMCA | Add/correct tabs | Request tabs | Top 50 tabs