» » »

Napalm Death, Identity Crisis Tabs (ver.1)

Artists:  A B C D E F G H I J K L M N O P Q R S T U V W X Y Z # 

Identity Crisis Tabs (ver.1)

Napalm Death Tabs
 Rating:
4/5 (4 votes)
Identity Crisis lessons Tabs too difficult? Try these video lessons and learn fast
                




All right headbangers,here's another kickass song from legendary grinders,Napalm 
ain't that brutal but it's a great song.

This is my first Napalm Death tab and all done by ear,so take it easy.


Gtr I (DGCFAD) – Mitch Harris

 Intro:Now here I prefer playing low D's with palm mute,gives a chunky sound,but Napalm 
don't,so it's up to you...
D|-------------------------------------------------------------------|
A|-------------------------------------------------------------------|
F|-------------------------------------------------------------------|
C|---------------------1h2-1h2---------------------------------------|
G|-3-----3-----3----------------3-------3----3-----------------------|
D|--0-0-0--0-0---0-0-0------------0-0-0---0-0--0-0--0-1-3-4-3-1------|

|--------------------------------------------------|
|--------------------------------------------------|
|--------------------------------------------------|
|--------------------1h2-1h2-----------------------|
|-3-----3----3----------------3-----3----3--2-3-5--|
|--0-0-0--0-0--0-0-0-----------0-0-0--0-0---0-1-3--|

Riff 2:play this riff really fast,listen to the record
                     Here you can only play root notes,sounds good anyway.
|-----------------------------------------------|
|-----------------------------------------------|
|------------------------7----------------------|
|--------4\6---------4-6-5----------------------|
|-666666-2\4--666666-2-4------------------------|
|-----------------------------------------------|

Riff 3
|-----------------------------------------------|
|-----------------------------------------------|
|---6-------------------------------------------|
|---4-------------------------------------------|
|-3”---3”-5\8-----------------------------------|
|---------3\6-----------------------------------|

Repeat riff 1
Repeat riff 2
Repeat riff 3

Riff 4:Kickass riff.
|-----------------------------------------------------|
|-----------------------------------------------------|
|-----------------------------------------------------|
|-----------------------------------------------------|
|-3-----3-------------3-55-3-------3-------------3-5--|
|--0-0-0--0-0-0-3h4p4-1-33---0-0-0---0-0-0-3h4p3-1-3--|
   . . .  . . .         ..   . . .   . . .

Repeat main riff
Repeat riff 2

Riff 3 with slight variation:
|-----------------------------------------------|
|-----------------------------------------------|
|---6-------------------------------------------|
|---4-------------4ph~--------------------------|
|-3”---3”-5\8---3”-----3”-5\8-------------------|
|---------3\6-------------3\6-------------------|

Outro:
|--------------------------------|
|--------------------------------|
|--------------------------------|
|--------------------1h2-1h2-----|
|-3-----3----3---------------2~--|
|--0-0-0--0-0--0-0-0---------0~--|

That's it.Hope it was helpful...Hail Satan!
--------------------------------------------------------------------------------

Duration Legend
---------------
W - whole; H - half; Q - quarter; E - 8th; S - 16th; T - 32nd; X - 64th; a - acciaccatura
+ - note tied to previous; . - note dotted; .. - note double dotted
Uncapitalized letters represent notes that are staccato (1/2 duration)
Irregular groupings are notated above the duration line
Duration letters will always appear directly above the note/fret number it represents the
duration for.  Duration letters with no fret number below them represent rests.  Multi-
bar rests are notated in the form Wxn, where n is the number of bars to rest for.  Low
melody durations appear below the staff

Tablature Legend
----------------
 h   - hammer-on
 p   - pull-off
 b   - bend
 pb  - pre-bend
 r   - bend release (if no number after the r, then release immediately)
 /\  - slide into or out of (from/to "nowhere")
 s   - legato slide
 S   - shift slide
 - natural harmonic
[n]  - artificial harmonic
n(n) - tapped harmonic
 ~   - vibrato
 tr  - trill
 T   - tap
 “  - trem. picking
 PM  - palm muting
\n/  - tremolo bar dip; n = amount to dip
 \n  - tremolo bar down
 n/  - tremolo bar up
/n\  - tremolo bar inverted dip
 =   - hold bend; also acts as connecting device for hammers/pulls
 <> - volume swell (louder/softer)
 x   - on rhythm slash represents muted slash
 o   - on rhythm slash represents single note slash

Misc Legend
-----------
 |  - bar
||  - double bar
||o - repeat start
o|| - repeat end
*|  - double bar (ending)
 :  - bar (freetime)
 $  - Segno
 &  - Coda
Tempo markers -  = BPM(8/16=s8/s16), where s8 = swing 8ths, s16 = swing 16ths

--------------------------------------------------------------------------------
            
Submit corrections

comments powered by Disqus
↑ Back to top | Napalm Death Tabs for Identity Crisis. Lyrics for acoustic guitar and electric guitar. Tablatures and chords are parodies/interpretations of the original songs. You may use it for private study, scholarship, research or language learning purposes only