» » »

Napalm Death, I Abstain Tabs (ver.1)

Artists:  A B C D E F G H I J K L M N O P Q R S T U V W X Y Z # 

I Abstain Tabs (ver.1)

Napalm Death Tabs
 Rating:
3.6/5 (5 votes)
I Abstain lessons Tabs too difficult? Try these video lessons and learn fast
                Utopia Banished
Tune down one step and a half

Intro (palm mute when needed)
-------------------------- ------- ------ --------------------------------------
-------------------------- ------- ------ --------------------------------------
-------------------------- ------- ------ --------------------------------------
-------------------------- --5-4-1 6-4--4 --------------------------------------
32----2-----63432----2---- -635241 462432 -2^3^2-32---2^3^2-32----2^3^2-32----2-
10 00 0 000 41210-00-0-000 -4-3-2- -4-21- 3------10003------1000 3------100003--

Committed to...
-------------------------------------------------------
-------------------------------------------------------
-------------------------------------------------------
---4-------4-5-----------------------------------------
4542434-454243-----------------------------------------
232-212-232-2------------------------------------------

But you stand steadfast?
--------------------------- ----------------------------
--------------------------- ----------------------------
--------------------------- ----------------------------
------444------------------ ----------------------------
---------444333------666333 -444333---------------------
000222---------222444------ ----------------------------

People are not subjects
----------------- ------ --------------------------------
----------------- ------ --------------------------------
----------------- ------ --------------------------------
----------------- ------ -3-4-4--------------------------
32----32-32-32--- -5-6-6 -1/2-2--------------------------
10-00-10-10 10-00 -3/4-4 --------------------------------

Open your eyes!
-------------------------------------------------------
-------------------------------------------------------
-------------------------------------------------------
-666-555-444-333---------------------------------------
6444633352224111---------------------------------------
4---4---3---2------------------------------------------

Theyre shaping you...
-------------------------------------------------------
-------------------------------------------------------
-------------------------------------------------------
-------------------------------------------------------
2-109-2-65-9-2-109-2-65-8------------------------------
0-8 7-0-43-7-0-8 7-0-43-6------------------------------

I abstain...
--------------------------------------------------------------
--------------------------------------------------------------
--------------------------------------------------------------
-----------------------333666555---------------------33220022-
-------44-----------------------------444---------------------
000 11 --331133-000 111---------000111---331133-0011----------

Ending
-------------------------------------------------------
-------------------------------------------------------
-------------------------------------------------------
-------------------------------------------------------
2------------------------------------------------------
0------------------------------------------------------
            
Submit corrections

comments powered by Disqus
↑ Back to top | Napalm Death Tabs for I Abstain. Lyrics for acoustic guitar and electric guitar. Tablatures and chords are parodies/interpretations of the original songs. You may use it for private study, scholarship, research or language learning purposes only