» » »

Napalm Death, Hiding Behind Tabs (ver.1)

Artists:  A B C D E F G H I J K L M N O P Q R S T U V W X Y Z # 

Hiding Behind Tabs (ver.1)

Napalm Death Tabs
 Rating:
4/5 (4 votes)
Hiding Behind lessons Tabs too difficult? Try these video lessons and learn fast
1
                             N A P A L M  D E A T H - H I D I N G  B E H I N D
                    From the Album HARMONY CORRUPTION
                      Copyright 1990 EARACHE RECORDS

                           Version 2.0 - MAY '02

Version 2.0 by: death8699

For Questions, Comments, Newest Version, or Corrections contact





 .  - palm mute                  /  - slide up to
\  - slide down to              ~  - vibrato
"  - tremelo picking           ( ) - ghost note
b  - bend                       h  - hammer-on
fb - full bend (1 step)         p  - pull-off
hb - half bend (1/2 step)       r  - release a bend
t  - tapping                    ah - artificial harmonic

Tune Gtr to D

--HIDING BEHIND--

[Riff A]
[----------------------|----------------------]
[----------------------|----------------------]
[*---------------------|---------------------*]GTRS 1&2
[*---------------------|---------------------*]
[--6--6--3----2--------|-6--6--3----2---------]
[--4--4--1----0--------|-4--4--1----0---------]

[----------------------|----------------------]
[----------------------|----------------------]
[*---------------------|---------------------*]GTRS 1&2
[*---------------------|---------------------*]
[--6--6--3----2--------|-6--6--3----2---------]
[--4--4--1----0--------|-4--4--1----0---------]


Play Riff A 1 time


[Riff B]
[----------------------------|----------------------------]
[----------------------------|----------------------------]
[*---------------------------|---------------------------*]GTRS 1&2
[*---------------------------|---------------------------*]
[----------------------------|-----------------------6"---]
[--4"----8"----7"----5"--1"--|-4"----8"----7"----5"-------]

[----------------------------|----------------------------]
[----------------------------|----------------------------]
[*---------------------------|---------------------------*]GTRS 1&2
[*---------------------------|---------------------------*]
[----------------------------|-----------------------6"---]
[--4"----8"----7"----5"--1"--|-4"----8"----7"----5"-------]


Play Riff B 1 time


[Riff C]
[------------------------|--------------------------]
[------------------------|--------------------------]
[*-----------------------|-------------------------*]GTRS 1&2
[*-----------------------|-------------------------*]
[--5---2-2-2--3---2-2-2--|-6---2-2-2--8---11--10----]
[--3---0-0-0--1---0-0-0--|-4---0-0-0--6---9---8-----]
       . . .      . . .        . . .

[------------------------|--------------------------]
[------------------------|--------------------------]
[*-----------------------|-------------------------*]GTRS 1&2
[*-----------------------|-------------------------*]
[--5---2-2-2--3---2-2-2--|-6---2-2-2--8---11--10----]
[--3---0-0-0--1---0-0-0--|-4---0-0-0--6---9---8-----]
       . . .      . . .        . . .


Play Riff C 3 times


[Riff D]
[---------------------------|---------------------------]
[---------------------------|---------------------------]
[*--------------------------|--------------------------*]GTRS 1&2
[*--------------------------|--------------------------*]
[--2--2--3/6\5--3--2--------|-2--2--3/6\5--3--2---------]
[--0--0--1/4\3--1--0--------|-0--0--1/4\3--1--0---------]
           sl                         sl

[---------------------------|---------------------------]
[---------------------------|---------------------------]
[*--------------------------|--------------------------*]GTRS 1&2
[*--------------------------|--------------------------*]
[--2--2--3/6\5--3--2--------|-2--2--3/6\5--3--2---------]
[--0--0--1/4\3--1--0--------|-0--0--1/4\3--1--0---------]
           sl                         sl


Play Riff D 1 time


[Riff E]
[---------------------|----------------------]
[---------------------|----------------------]
[*--------------------|---------------------*]GTRS 1&2
[*--------------------|---------------------*]
[------------------5"-|-5"--4"---------------]
[--0"----3"----4"-----|---------1"----0"-----]

[---------------------|----------------------]
[---------------------|----------------------]
[*--------------------|---------------------*]GTRS 1&2
[*--------------------|---------------------*]
[------------------5"-|-5"--4"---------------]
[--0"----3"----4"-----|---------1"----0"-----]


Play Riff E 1 time


[Next] (GTR 1)     (GTRS 1&2)
[------------------|------------------]
[------------------|------------------]
[*-----------------|-----------------*]
[*-----------------|-2"--1"----------*]
[--0"--1"--0"--1"--|---------2"--3"---]
[------------------|------------------]


[Riff F]
[------------------|------------------]
[------------------|------------------]
[*-----------------|-----------------*]GTRS 1&2
[*-----------------|-2"--1"----------*]
[--0"--1"--0"--1"--|---------2"--3"---]
[------------------|------------------]

[------------------|------------------]
[------------------|------------------]
[*-----------------|-----------------*]GTRS 1&2
[*-----------------|-2"--1"----------*]
[--0"--1"--0"--1"--|---------2"--3"---]
[------------------|------------------]


Play Riff F 3 times


[Riff G]
[-------------------------------|----------------------------]
[-------------------------------|----------------------------]
[*---------------4---3----------|---------------4---3-------*]GTRS 1&2
[*-2------3------2---1---4------|-2------3------2---1---4---*]
[--0------1--------------2------|-0------1--------------2----]
[-------------------------------|----------------------------]


Play Riff F 2 times
Play Riff G 2 times


[Riff H]
[----------------------------------|----------------------------------]
[----------------------------------|----------------------------------]
[*---------------------------------|---------------------------------*]GTRS 1&2
[*---------------------------------|---------------------------------*]
[--8--9--9--8--10--10------7---6---|-8--9--9--8--10--10------7---6----]
[--6--7--7--6--8---8-------5---4---|-6--7--7--6--8---8-------5---4----]

[----------------------------------|----------------------------------]
[----------------------------------|----------------------------------]
[*---------------------------------|---------------------------------*]GTRS 1&2
[*---------------------------------|---------------------------------*]
[--8--9--9--8--10--10------7---6---|-8--9--9--8--10--10------7---6----]
[--6--7--7--6--8---8-------5---4---|-6--7--7--6--8---8-------5---4----]


[Riff H.1]
[------------------------------|------------------------------]
[------------------------------|------------------------------]
[*-----------------------------|-----------------------------*]GTRS 1&2
[*-----------------------------|-----------------------------*]
[------------------------------|------------------------------]
[--6"--7"--6"--8"------5"--4"--|-6"--7"--6"--8"------5"--4"---]

[------------------------------|------------------------------]
[------------------------------|------------------------------]
[*-----------------------------|-----------------------------*]GTRS 1&2
[*-----------------------------|-----------------------------*]
[------------------------------|------------------------------]
[--6"--7"--6"--8"------5"--4"--|-6"--7"--6"--8"------5"--4"---]


[Riff H.2]
[--------------------------------|--------------------------------]
[--------------------------------|--------------------------------]
[*-------------------------------|-------------------------------*]GTRS 1&2
[*-------------------------------|-------------------------------*]
[--5--6--6--5--7--7------4---3---|-5--6--6--5--7--7------4---3----]
[--3--4--4--3--5--5------2---1---|-3--4--4--3--5--5------2---1----]

[--------------------------------|--------------------------------]
[--------------------------------|--------------------------------]
[*-------------------------------|-------------------------------*]GTRS 1&2
[*-------------------------------|-------------------------------*]
[--5--6--6--5--7--7------4---3---|-5--6--6--5--7--7------4---3----]
[--3--4--4--3--5--5------2---1---|-3--4--4--3--5--5------2---1----]


Play Riff H.1 1 time


[Riff I]
[----------------------------|------------------------------------]
[----------------------------|------------------------------------]
[*---------------------------|-----------------------------------*]GTRS 1&2
[*---------------------------|---------------------------5---4---*]
[--2------/7~---6~---4---3---|-2------/7~---6~---9---8---7---6----]
[--0------sl---------2---1---|-0------sl---------7---6------------]

[----------------------------|------------------------------------]
[----------------------------|------------------------------------]
[*---------------------------|-----------------------------------*]GTRS 1&2
[*---------------------------|---------------------------5---4---*]
[--2------/7~---6~---4---3---|-2------/7~---6~---9---8---7---6----]
[--0------sl---------2---1---|-0------sl---------7---6------------]


[Riff I.2]
[------------------------------|---------------------------------------]
[------------------------------|---------------------------------------]
[*-----------------------------|--------------------------------------*]GTRS 1&2
[*-----------------------------|--------------------------------------*]
[----------7"---6"-------------|---------7"---6"-------------7"---6"---]
[--0"----------------2"---1"---|-0"----------------7"---6"-------------]

[------------------------------|---------------------------------------]
[------------------------------|---------------------------------------]
[*-----------------------------|--------------------------------------*]GTRS 1&2
[*-----------------------------|--------------------------------------*]
[----------7"---6"-------------|---------7"---6"-------------7"---6"---]
[--0"----------------2"---1"---|-0"----------------7"---6"-------------]


[Riff J]
[--------------------|--------------------]
[--------------------|--------------------]
[*-------------------|-------------------*]GTRS 1&2
[*-------------------|-------------------*]
[--------------------|-7"----4"----6"-----]
[--0"----1"----3"----|--------------------]

[--------------------|--------------------]
[--------------------|--------------------]
[*-------------------|-------------------*]GTRS 1&2
[*-------------------|-------------------*]
[--------------------|-7"----4"----6"-----]
[--0"----1"----3"----|--------------------]


Play Riff J 3 times


[Riff K]
[----------------------|-----------------------]
[----------------------|-----------------------]
[*---------------------|---------9------6--6--*]GTRS 1&2
[*---------------------|---------7------4--4--*]
[--2--2-2-2--3--2-2-2--|-6--2-2----------------]
[--0--0-0-0--1--0-0-0--|-4--0-0----------------]
      . . .     . . .       . .

[----------------------|-----------------------]
[----------------------|-----------------------]
[*---------------------|---------9------6--6--*]GTRS 1&2
[*---------------------|---------7------4--4--*]
[--2--2-2-2--3--2-2-2--|-6--2-2----------------]
[--0--0-0-0--1--0-0-0--|-4--0-0----------------]
      . . .     . . .       . .


Play Riff K 3 times
Play Riff J 4 times
Play Riff K 4 times
Play Riff B 4 times
End!
            
Submit corrections

comments powered by Disqus
↑ Back to top | Napalm Death Tabs for Hiding Behind. Lyrics for acoustic guitar and electric guitar. 1 Tablatures and chords are parodies/interpretations of the original songs. You may use it for private study, scholarship, research or language learning purposes only