» » »

Napalm Death, Forced To Fear Tabs (ver.1)

Artists:  A B C D E F G H I J K L M N O P Q R S T U V W X Y Z # 

Forced To Fear Tabs (ver.1)

Napalm Death Tabs
 Rating:
4/5 (4 votes)
Forced To Fear lessons Tabs too difficult? Try these video lessons and learn fast
1
                NAPALM DEATH - FORCED TO FEAR
(Order Of The Leech, 2002)

Key
= after note = vibrato
^ after note = heavy vibrato 
\ = slide down
/ = slide up
+ = tap
h = hammer
p = pull
n = natural harmonic
s = pinching harmonic (squeal)
* = tremolo pick
t = trill
b = bend
|-3-| = triplet

n number above the tab = play the first part then the first finishing part
			 play the first part a second time and then play the second finishing part
			 etc.

Tune Down 1/2 Step

Riff 1

Eb -------------------------------------------------------
Bb -------------------------------------------------------
Gb -------------------------------------------------3--2--
Db ---------1-0---------1-0-4-3---------1-0---------3--2--
Ab -1-2---------1-2-------------1-2---------1-2-----1--0--
Eb -----3-3---------3-3-------------3-3---------3-3-------

Riff 1A

Eb -------------------------------------------------------
Bb -------------------------------------------------------
Gb -9-9-9-9-9-9-9-9-9-9-9-9-9-9-9-9-9-9-9-9-9-9-9-9-------
Db -------------------------------------------------8--7--
Ab -7-7-7-7-7-7-7-7-7-7-7-7-7-7-7-7-7-7-7-7-7-7-7-7-8--7--
Eb -------------------------------------------------6--5--

Riff 2

Eb -----------------------------------------------------------------
Bb -----------------------------------------------------------------
Gb -------------------------------------------------------------4-3-
Db -------------------------------------------------2-5-2-4-2-5-----
Ab ---------2-2-2-2---------2-2-2-2---------2-2-2-2-----------------
Eb -0-3-0-2-0-0-0-0-0-3-0-2-0-0-0-0-0-3-0-2-0-0-0-0-----------------

Riff 2A

Eb --------------------------------------------------------------------------------------------------------------------
Bb --------------------------------------------------------------------------------------------------------------------
Gb --------------------------------------------------------------------------------------------------------------------
Db --------------------------------------------------------------------------------------------------------------------
Ab --------------------------------------------------------------------------------------------------------------------
Eb -0-3-0-2-0----0-3-0-2-0----0-3-0-2-0----0-3-0-2-0-3-0-2-0----0-3-0-2-0----0-3-0-2-0----0-3-0-2-0----0-3-0-2-0-3-0-2-

Riff 2B

Eb ---------------------------------------------------------------------------------
Bb ---------------------------------------------------------------------------------
Gb -9-9-9-9-9-9-9-9-9-9-9-9-9-9-9-9-15-15-15-15-15-15-15-15-15-15-15-15-15-15-15-15-
Db ---------------------------------------------------------------------------------
Ab -7-7-7-7-7-7-7-7-7-7-7-7-7-7-7-7-13-13-13-13-13-13-13-13-13-13-13-13-13-13-13-13-
Eb ---------------------------------------------------------------------------------

Eb ---------------------------------------------------------------------------------
Bb ---------------------------------------------------------------------------------
Gb -9-9-9-9-9-9-9-9-9-9-9-9-9-9-9-9-15-15-15-15-15-15-15-15-11-11-11-11-12-12-12-12-
Db ---------------------------------------------------------------------------------
Ab -7-7-7-7-7-7-7-7-7-7-7-7-7-7-7-7-13-13-13-13-13-13-13-13-9 -9 -9 -9 -10-10-10-10-
Eb ---------------------------------------------------------------------------------

Riff 2C

Eb -----------------------------------------------------------------
Bb -----------------------------------------------------------------
Gb -----------------------------------------------------------------
Db ---------2-2-2-2---------2-2-2-2---------2-2-2-2-----------------
Ab ---------2-2-2-2---------2-2-2-2---------2-2-2-2-----------------
Eb -0-3-0-2-0-0-0-0-0-3-0-2-0-0-0-0-0-3-0-2-0-0-0-0-0-3-0-2-0-3-0-2-

Riff 3

Eb -------------------------------------------------
Bb -------------------------------------------------
Gb -------4-4---5-5---------------6-6---7-7---------
Db -2-2---4-4---5-5---3-3---4-4---6-6---7-7---5-5---
Ab -2-2---2-2---3-3---3-3---4-4---4-4---5-5---5-5---
Eb -0-0---------------1-1---2-2---------------3-3---

Riff 4

Eb ---------------------------------------------------------
Bb ---------------------------------------------------------
Gb ---------------------------------------------------------
Db -1*--------------1*----------1*--------------1*----------
Ab -----0*--------------0*----------0*--------------0*------
Eb ---------2*--------------2*----------1*--------------1*--

Riff 4A

Eb ---------------------------------------------------------
Bb ---------------------------------------------------------
Gb ---------------------------------------------------------
Db -1*------4*------1*------4*--1*------3*------1*------3*--
Ab -----0*--------------0*----------0*--------------0*------
Eb ---------------------------------------------------------

Riff 5

Eb ---------------------------------------------------------------------------------------------------------------------
Bb ---------------------------------------------------------------------------------------------------------------------
Gb -6-6-6-6-6----------6------6--5-5-5-5-5----------5------5--6-6-6-6-6----------6------6-------------------------------
Db -6-6-6-6-6----------6------6--5-5-5-5-5----------5------5--6-6-6-6-6----------6------6--5-5-5-5-5----------5------2--
Ab -4-4-4-4-4----------4------4--3-3-3-3-3----------3------3--4-4-4-4-4----------4------4--5-5-5-5-5----------5------2--
Eb ------------0-0-0-0----0-0---------------0-0-0-0----0-0---------------0-0-0-0----0-0----3-3-3-3-3--0-0-0-0-3--0-0-0--

Riff 6

Eb ---------------------------------
Bb ---------------------------------
Gb ---------------------------------
Db ---------------------------------
Ab -----2*--3*----------4*--5*------
Eb -0*----------1*--2*----------3*--

Order

Riff 1/1A x 4
Riff 2 x 4
Riff 1/1A x 4
Riff 2 x 4
Riff 3 x 4
Riff 4 x 2
Riff 3 x 4
Riff 4 x 2
Riff 4A x 2
Riff 5 x 2
Riff 6 x 4
Riff 5 x 2
Riff 6 x 4
Riff 2A x 1
Riff 2A/2B x 1
Riff 2C x 4
            
Submit corrections

comments powered by Disqus
↑ Back to top | Napalm Death Tabs for Forced To Fear. Lyrics for acoustic guitar and electric guitar. 1 Tablatures and chords are parodies/interpretations of the original songs. You may use it for private study, scholarship, research or language learning purposes only