>
 >
Extremity Retained

Extremity Retained Guitar Tabs

Napalm Death - Extremity Retained chords, tabs, tablatures, lyrics

Guitar lessons | Add/correct | Request | Top 50 tabs Artists:  A B C D E F G H I J K L M N O P Q R S T U V W X Y Z 0-9

Extremity Retained Guitar Tabs – Napalm Death

CD, Sheet music, Poster

Do you like Extremity Retained? Share with your friends now
Tabs
         N A P A L M  D E A T H - E X T R E M I T Y  R E T A I N E D
                       From the Album HARMONY CORRUPTION
                         Copyright 1990 EARACHE RECORDS

                              Version 2.0 - MAY '02

           Version 2.0 by: death8699

For Questions, Comments, Newest Version, or Corrections contact





.  - palm mute                  /  - slide up to
\  - slide down to              ~  - vibrato
"  - tremelo picking           ( ) - ghost note
b  - bend                       h  - hammer-on
fb - full bend (1 step)         p  - pull-off
hb - half bend (1/2 step)       r  - release a bend
t  - tapping                    ah - artificial harmonic

Tune Gtr to D

--EXTREMITY RETAINED--

[Riff A]
[-------------------------|-------------------------]
[-------------------------|-------------------------]
[*------------------------|------------------------*]GTRS 1&2
[*------------------------|------------------------*] 
[--5---------2--3----3----|-5---------2--3----3-----]
[--3--0-0-0--0--1----1----|-3--0-0-0--0--1----1-----]
      . . .                    . . .

[-------------------------|-------------------------]
[-------------------------|-------------------------]
[*------------------------|------------------------*]GTRS 1&2
[*------------------------|------------------------*] 
[--5---------2--3----3----|-5---------2--3----3-----]
[--3--0-0-0--0--1----1----|-3--0-0-0--0--1----1-----]
      . . .                    . . .


Play Riff A 1 time


[Riff B]
[------------------|------------------]
[------------------|------------------]
[*-----------------|-----------------*]GTRS 1&2
[*-----------------|-----------------*]
[----------1"--2"--|------------------]
[--3"--2"----------|-1"--2"--5"--4"---]

[------------------|------------------]
[------------------|------------------]
[*-----------------|-----------------*]GTRS 1&2
[*-----------------|-----------------*]
[----------1"--2"--|------------------]
[--3"--2"----------|-1"--2"--5"--4"---]


Play Riff B 1 time


[Riff C]
[--------------------------|--------------------------]
[--------------------------|--------------------------]
[*-------------------------|-------------------------*]GTRS 1&2
[*-------------------------|-------------------------*] 
[------2"--1"----------3"--|-3"--------------2"--1"---]
[--1"----------3"--1"------|-----0"--3"--1"-----------]

[--------------------------|--------------------------]
[--------------------------|--------------------------]
[*-------------------------|-------------------------*]GTRS 1&2
[*-------------------------|-------------------------*] 
[------2"--1"----------3"--|-3"--------------2"--1"---]
[--1"----------3"--1"------|-----0"--3"--1"-----------]


Play Riff B 2 times
Play Riff C 1 time


[Riff D]
[------------------------|------------------------]
[------------------------|------------------------]
[*-----------------------|-----------------------*]GTRS 1&2
[*---------4--3----------|---------4--3----------*]
[--6--5-5--2--1--5--4-4--|-6--5-5--2--1--5--4-4---]
[--4--3-3--------3--2-2--|-4--3-3--------3--2-2---]

[------------------------|------------------------]
[------------------------|------------------------]
[*-----------------------|-----------------------*]GTRS 1&2
[*---------4--3----------|---------4--3----------*]
[--6--5-5--2--1--5--4-4--|-6--5-5--2--1--5--4-4---]
[--4--3-3--------3--2-2--|-4--3-3--------3--2-2---]


Play Riff D 3 times


[Riff E]
[------------------------------|--------------------------------]
[------------------------------|--------------------------------]
[*-----------------------------|-------------------------------*]GTRS 1&2
[*-----------------------------|-------------------------------*]
[--33---33--3--33--3--33--3--3-|-1"--------2"-------------------]
[--11---11--1--11--1--11--1--1-|---------------------2"---------]

[------------------------------|--------------------------------]
[------------------------------|--------------------------------]
[*-----------------------------|-------------------------------*]GTRS 1&2
[*-----------------------------|-------------------------------*]
[--33---33--3--33--3--33--3--3-|--------------------------------]
[--11---11--1--11--1--11--1--1-|-4"--------5"--------2"---------]


Play Riff E 1 time


[Riff F]
[----------------------------------|----------------------------------]
[----------------------------------|----------------------------------]
[*---------------------------------|---------------------------------*]GTRS 1&2
[*-------------2"--1"--------------|---------------------2"--1"------*]
[------1"--2"----------------------|-------------3"--2"----------3"---]
[--1"------------------4"--5"--2"--|-1"--4"--5"-----------------------]

[----------------------------------|----------------------------------]
[----------------------------------|----------------------------------]
[*---------------------------------|---------------------------------*]GTRS 1&2
[*-------------2"--1"--------------|---------------------2"--1"------*]
[------1"--2"----------------------|-------------3"--2"----------3"---]
[--1"------------------4"--5"--2"--|-1"--4"--5"-----------------------]


Play Riff F 1 time
Play Riff D 4 times
Play Riff B 3.5 times


[Riff B.1]
[------------------|--------------------]
[------------------|--------------------]
[*-----------------|-------------------*]GTRS 1&2
[*-----------------|-------------------*]
[----------1"--2"--|---------7----6-----]
[--3"--2"----------|-1"--2"--5----4-----]
                                [End]





Comments


Popular Napalm Death tabs & chords
Back From The Dead Bass Tabs
Caught... In A Dream Bass Tabs
Malicious Intent Bass Tabs
Necessary Evil Bass Tabs
Abattoir Tabs
Control Tabs
Lowlife Tabs
Malicious Intent Tabs
Success Tabs
Unchallenged Hate Tabs


Song lyrics



↑ Back to top | Tablatures and chords are parodies/interpretations of the original songs. You may use it for private study, scholarship, research or language learning purposes only
© 2014 AZChords.com Contact us | Privacy policy | DMCA | Add/correct tabs | Request tabs | Top 50 tabs