>
 >
Continuing War On Stupidity

Continuing War On Stupidity Bass Tabs

Napalm Death - Continuing War On Stupidity chords, tabs, tablatures, lyrics

Guitar lessons | Add/correct | Request | Top 50 tabs Artists:  A B C D E F G H I J K L M N O P Q R S T U V W X Y Z 0-9

Continuing War On Stupidity Bass Tabs – Napalm Death

CD, Sheet music, Poster

Do you like Continuing War On Stupidity? Share with your friends now
Bass TabsTabs
                          Continuing War On Stupidity                           


                                                                    Napalm Death
Raita 5



      H        H           H        H           H        H         
F||---------------------|--------------------|--------------------|
C||*--------------------|--------------------|--------------------|
G||*--------------------|--------------------|--------------------|
D||---3--------3--------|--3--------3--------|--3--------3--------|


  H        H              H        H           H        H         
---------------------||---------------------|--------------------|
--------------------*||*--------------------|--------------------|
--------------------*||*--------------------|--------------------|
--3--------3---------||---3--------3--------|--3--------3--------|


  H        H           H        H             E  E  E   E  E  E  E   E   
--------------------|---------------------||----------------------------|
--------------------|--------------------*||----------------------------|
--------------------|--------------------*||--------8p--5--------8p--5--|
--3--------3--------|--3--------3---------||--0--0---------0--0---------|


  E  E  E   E  E   E  E   E     E  E  E   E  E  E  E   E   
-----------------------------|----------------------------|
-----------------------------|----------------------------|
--------8p--5--8p--5--8p--5--|--------8p--5--------8p--5--|
--0--0-----------------------|--0--0---------0--0---------|


  E  E  E   E  E   E  E   E     E  E  E   E  E  E  E   E   
-----------------------------|----------------------------|
-----------------------------|----------------------------|
--------8p--5--8p--5--8p--5--|--------8p--5--------8p--5--|
--0--0-----------------------|--0--0---------0--0---------|


  E  E  E   E  E   E  E   E     E  E  E   E  E  E  E   E   
-----------------------------|----------------------------|
-----------------------------|----------------------------|
--------8p--5--8p--5--8p--5--|--------8p--5--------8p--5--|
--0--0-----------------------|--0--0---------0--0---------|


  E  E  E   E  E   E  E   E     E  E  E   E  E  E  E   E   
-----------------------------|----------------------------|
-----------------------------|----------------------------|
--------8p--5--8p--5--8p--5--|--------8p--5--------8p--5--|
--0--0-----------------------|--0--0---------0--0---------|


  E  E  E   E  E   E  E   E     E  E  E   E  E  E  E   E   
-----------------------------|----------------------------|
-----------------------------|----------------------------|
--------8p--5--8p--5--8p--5--|--------8p--5--------8p--5--|
--0--0-----------------------|--0--0---------0--0---------|


  E  E  E   E  E   E  E   E     E  E  E   E  E  E  E   E   
-----------------------------|----------------------------|
-----------------------------|----------------------------|
--------8p--5--8p--5--8p--5--|--------8p--5--------8p--5--|
--0--0-----------------------|--0--0---------0--0---------|


  E  E  E   E  E   E  E   E     E  E  E   E  E  E  E   E   
-----------------------------|----------------------------|
-----------------------------|----------------------------|
--------8p--5--8p--5--8p--5--|--------8p--5--------8p--5--|
--0--0-----------------------|--0--0---------0--0---------|


  E  E  E   E  E   E  E   E     H        H           H        H         
-----------------------------|--------------------|--------------------|
-----------------------------|--------------------|--------------------|
--------8p--5--8p--5--8p--5--|--------------------|--------------------|
--0--0-----------------------|--3--------3--------|--3--------3--------|


  H        H           H        H             H        H         
--------------------|--------------------||---------------------|
--------------------|--------------------||*--------------------|
--------------------|--------------------||*--------------------|
--3--------3--------|--3--------3--------||---3--------3--------|


  H        H           H        H           H        H           
--------------------|--------------------|---------------------||
--------------------|--------------------|--------------------*||
--------------------|--------------------|--------------------*||
--3--------3--------|--3--------3--------|--3--------3---------||


  E  E  E   E  E  E  E   E     E  E  E   E  E   E  E   E   
----------------------------|-----------------------------|
----------------------------|-----------------------------|
--------8p--5--------8p--5--|--------8p--5--8p--5--8p--5--|
--0--0---------0--0---------|--0--0-----------------------|


  E  E  E   E  E  E  E   E     E  E  E   E  E   E  E   E   
----------------------------|-----------------------------|
----------------------------|-----------------------------|
--------8p--5--------8p--5--|--------8p--5--8p--5--8p--5--|
--0--0---------0--0---------|--0--0-----------------------|


  E  E  E   E  E  E  E   E     E  E  E   E  E   E  E   E   
----------------------------|-----------------------------|
----------------------------|-----------------------------|
--------8p--5--------8p--5--|--------8p--5--8p--5--8p--5--|
--0--0---------0--0---------|--0--0-----------------------|


  E  E  E   E  E  E  E   E     E  E  E   E  E   E  E   E   
----------------------------|-----------------------------|
----------------------------|-----------------------------|
--------8p--5--------8p--5--|--------8p--5--8p--5--8p--5--|
--0--0---------0--0---------|--0--0-----------------------|


  E  E  E   E  E  E  E   E     E  E  E   E  E   E  E   E   
----------------------------|-----------------------------|
----------------------------|-----------------------------|
--------8p--5--------8p--5--|--------8p--5--8p--5--8p--5--|
--0--0---------0--0---------|--0--0-----------------------|


  E  E  E   E  E  E  E   E     E  E  E   E  E   E  E   E   
----------------------------|-----------------------------|
----------------------------|-----------------------------|
--------8p--5--------8p--5--|--------8p--5--8p--5--8p--5--|
--0--0---------0--0---------|--0--0-----------------------|


  E  E  E   E  E  E  E   E     E  E  E   E  E   E  E   E   
----------------------------|-----------------------------|
----------------------------|-----------------------------|
--------8p--5--------8p--5--|--------8p--5--8p--5--8p--5--|
--0--0---------0--0---------|--0--0-----------------------|


  E  E  E   E  E  E  E   E     E  E  E   E  E   E  E   E   
----------------------------|-----------------------------|
----------------------------|-----------------------------|
--------8p--5--------8p--5--|--------8p--5--8p--5--8p--5--|
--0--0---------0--0---------|--0--0-----------------------|


  Q    Q    Q    Q       Q    Q    Q    Q       Q    Q    Q    Q     
----------------------|----------------------|----------------------|
----------------------|----------------------|----------------------|
--7----8----5----7----|--4----5----4----5----|--7----8----5----7----|
--0-------------------|----------------------|--0-------------------|


  Q    Q    Q    Q       Q    Q    Q    Q       Q    Q    Q    Q     
----------------------|----------------------|----------------------|
----------------------|----------------------|----------------------|
--4----5----4----5----|--7----8----5----7----|--4----5----4----5----|
----------------------|--0-------------------|----------------------|


  Q    Q    Q    Q       Q    Q    Q    Q       Q    E.   S E  E  E.   S  
----------------------|----------------------|---------------------------|
----------------------|----------------------|---------------------------|
--7----8----5----7----|--4----5----4----5----|-------8s---5-------7s---4-|
--0-------------------|----------------------|--0-----------0--0---------|


  E  E  E.   S E  E  E.   S    Q    E.   S E  E  E.   S  
----------------------------|---------------------------|
----------------------------|---------------------------|
----------------------------|-------8s---5-------7s---4-|
--0--0--3s---6-0--0--3s---6-|--0-----------0--0---------|


  E  E  E.   S E  E  E.   S    Q    E.   S E  E  E.   S  
----------------------------|---------------------------|
----------------------------|---------------------------|
----------------------------|-------8s---5-------7s---4-|
--0--0--6s---3-0--0--6s---3-|--0-----------0--0---------|


  E  E  E.   S E  E  E.   S    Q    E.   S E  E  E.   S  
----------------------------|---------------------------|
----------------------------|---------------------------|
----------------------------|-------8s---5-------7s---4-|
--0--0--3s---6-0--0--3s---6-|--0-----------0--0---------|


  E  E  E.   S E  E  E.   S    Q    E.   S E  E  E.   S  
----------------------------|---------------------------|
----------------------------|---------------------------|
----------------------------|-------8s---5-------7s---4-|
--0--0--6s---3-0--0--6s---3-|--0-----------0--0---------|


  E  E  E.   S E  E  E.   S    Q    E.   S E  E  E.   S  
----------------------------|---------------------------|
----------------------------|---------------------------|
----------------------------|-------8s---5-------7s---4-|
--0--0--3s---6-0--0--3s---6-|--0-----------0--0---------|


  E  E  E.   S E  E  E.   S    Q    E.   S E  E  E.   S  
----------------------------|---------------------------|
----------------------------|---------------------------|
----------------------------|-------8s---5-------7s---4-|
--0--0--6s---3-0--0--6s---3-|--0-----------0--0---------|


  E  E  E.   S E  E  E.   S    Q    E.   S E  E  E.   S  
----------------------------|---------------------------|
----------------------------|---------------------------|
----------------------------|-------8s---5-------7s---4-|
--0--0--3s---6-0--0--3s---6-|--0-----------0--0---------|


  E  E  E.   S E  E  E.   S    Q    Q    Q    Q       Q    Q    Q    Q     
----------------------------|----------------------|----------------------|
----------------------------|----------------------|----------------------|
----------------------------|----------------------|----------------------|
--0--0--6s---3-0--0--6s---3-|--0----0----0----0----|--0----0----0----0----|


  Q    Q    H           Q    Q    H           Q    Q    Q    Q     
---------------------|---------------------|----------------------|
---------------------|---------------------|----------------------|
--2----1----2--------|--2----1----2--------|----------------------|
---------------------|---------------------|--0----0----0----0----|


  Q    Q    Q    Q       E   E  Q    Q    E   E     Q    Q    E   E  Q     
----------------------|--------------------------|------------------------|
----------------------|--------------------------|------------------------|
----------------------|--------------------------|------------------------|
--0----0----0----0----|--5h--6--5----5----5h--6--|--5----5----5h--6--5----|


  Q    Q    Q    Q       Q    Q    Q    Q       Q    Q    H         
----------------------|----------------------|---------------------|
----------------------|----------------------|---------------------|
----------------------|----------------------|--2----1----2--------|
--0----0----0----0----|--0----0----0----0----|---------------------|


  Q    Q    H           Q    Q    Q    Q       Q    Q    Q    Q     
---------------------|----------------------|----------------------|
---------------------|----------------------|----------------------|
--2----1----5--------|----------------------|----------------------|
---------------------|--0----0----0----0----|--0----0----0----0----|


  E   E  Q    Q    E   E     Q    Q    E   E  Q       Q    Q    Q    Q     
--------------------------|------------------------|----------------------|
--------------------------|------------------------|----------------------|
--------------------------|------------------------|----------------------|
--5h--6--5----5----5h--6--|--5----5----5h--6--5----|--0----0----0----0----|


  Q    Q    Q    Q       Q    Q    H           Q    Q    H         
----------------------|---------------------|---------------------|
----------------------|---------------------|---------------------|
----------------------|--2----1----2--------|--2----1----2--------|
--0----0----0----0----|---------------------|---------------------|


  Q    Q    Q    Q       Q    Q    Q    Q       E   E  Q    Q    E   E   
----------------------|----------------------|--------------------------|
----------------------|----------------------|--------------------------|
----------------------|----------------------|--------------------------|
--0----0----0----0----|--0----0----0----0----|--5h--6--5----5----5h--6--|


  Q    Q    E   E  Q       Q    Q    Q    Q       Q    Q    Q    Q     
------------------------|----------------------|----------------------|
------------------------|----------------------|----------------------|
------------------------|----------------------|----------------------|
--5----5----5h--6--5----|--0----0----0----0----|--0----0----0----0----|


  Q    Q    H           Q    Q    H           Q    Q    Q    Q     
---------------------|---------------------|----------------------|
---------------------|---------------------|----------------------|
--2----1----2--------|--2----1----5--------|----------------------|
---------------------|---------------------|--0----0----0----0----|


  Q    Q    Q    Q       E   E  E   E  E   E  E   E   
----------------------|------------------------------|
----------------------|------------------------------|
----------------------|------------------------------|
--0----0----0----0----|--6p--5--6p--5--6p--5--6p--5--|


  E   E  E   E  E   E  Q       E   E  E   E  E   E  E   E   
----------------------------|------------------------------|
----------------------------|------------------------------|
----------------------------|------------------------------|
--6p--5--6p--5--6p--5--3----|--6p--5--6p--5--6p--5--6p--5--|


  E   E  E   E  E   E  Q       E   E  E   E  E   E  E   E   
----------------------------|------------------------------|
----------------------------|------------------------------|
-----------------------7----|------------------------------|
--6p--5--6p--5--6p--5-------|--6p--5--6p--5--6p--5--6p--5--|


  E   E  E   E  E   E  Q       E   E  E   E  E   E  E   E   
----------------------------|------------------------------|
----------------------------|------------------------------|
----------------------------|------------------------------|
--6p--5--6p--5--6p--5--3----|--6p--5--6p--5--6p--5--6p--5--|


  E   E  E   E  E   E  Q       E   E  E   E  E   E  E   E   
----------------------------|------------------------------|
----------------------------|------------------------------|
-----------------------7----|------------------------------|
--6p--5--6p--5--6p--5-------|--6p--5--6p--5--6p--5--6p--5--|


  E   E  E   E  E   E  Q       E  Q    E  E  Q    E     E  Q    E  E  Q    E   
----------------------------|------------------------|------------------------|
----------------------------|------------------------|------------------------|
----------------------------|------------------------|-------------5--5----5--|
--6p--5--6p--5--6p--5--3----|--7--7----7--7--7----7--|--7--7----7-------------|


  E  Q    E  E  Q    E     E  Q    E  E  Q    E     E  Q    E  E  Q    E   
------------------------|------------------------|------------------------|
------------------------|------------------------|------------------------|
--6--6----6--6--6----6--|--6--6----6--9--9----9--|------------------------|
------------------------|------------------------|--7--7----7--7--7----7--|


  E  Q    E  E  Q    E     E  Q    E  E  Q    E     E  Q    E  E  Q    E   
------------------------|------------------------|------------------------|
------------------------|------------------------|------------------------|
-------------5--5----5--|--6--6----6--6--6----6--|--6--6----6--9--9----9--|
--7--7----7-------------|------------------------|------------------------|


  E   E  E   E  E   E  E   E     E   E  E   E  E   E  Q     
------------------------------|----------------------------|
------------------------------|----------------------------|
------------------------------|-----------------------7----|
--6p--5--6p--5--6p--5--6p--5--|--6p--5--6p--5--6p--5-------|


  E   E  E   E  E   E  E   E     E   E  E   E  E   E  Q     
------------------------------|----------------------------|
------------------------------|----------------------------|
------------------------------|----------------------------|
--6p--5--6p--5--6p--5--6p--5--|--6p--5--6p--5--6p--5--3----|


  E   E  E   E  E   E  E   E     E   E  E   E  E   E  Q     
------------------------------|----------------------------|
------------------------------|----------------------------|
------------------------------|-----------------------7----|
--6p--5--6p--5--6p--5--6p--5--|--6p--5--6p--5--6p--5-------|


  E   E  E   E  E   E  E   E     E   E  E   E  E   E  Q     
------------------------------|----------------------------|
------------------------------|----------------------------|
------------------------------|----------------------------|
--6p--5--6p--5--6p--5--6p--5--|--6p--5--6p--5--6p--5--3----|


  E  Q    E  E  Q    E     E  Q    E  E  Q    E     E  Q    E  E  Q    E   
------------------------|------------------------|------------------------|
------------------------|------------------------|------------------------|
------------------------|-------------5--5----5--|--6--6----6--6--6----6--|
--7--7----7--7--7----7--|--7--7----7-------------|------------------------|


  E  Q    E  E  Q    E     E  Q    E  E  Q    E     E  Q    E  E  Q    E   
------------------------|------------------------|------------------------|
------------------------|------------------------|------------------------|
--6--6----6--9--9----9--|------------------------|-------------5--5----5--|
------------------------|--7--7----7--7--7----7--|--7--7----7-------------|


  E  Q    E  E  Q    E     E  Q    E  E  Q    E     Q    E  E  E  E  E  E   
------------------------|------------------------|-------------------------|
------------------------|------------------------|-------------------------|
--6--6----6--6--6----6--|--6--6----6--9--9----9--|-------------------------|
------------------------|------------------------|--0----0--0--0--0--0--0--|


  E   E  Q    E   E  Q       Q    E  E  E  E  E  E     E   E  Q    Q    Q     
--------------------------|-------------------------|------------------------|
--------------------------|-------------------------|--------------0---------|
--------------------------|-------------------------|--2p--1--2---------4----|
--4p--3--4----4p--3--4----|--0----0--0--0--0--0--0--|------------------------|


  Q    E  E  E  E  E  E     E   E  Q    E   E  Q       Q    Q    Q    Q     
-------------------------|--------------------------|----------------------|
-------------------------|--------------------------|----------------------|
-------------------------|--------------------------|-------8----5---------|
--0----0--0--0--0--0--0--|--4p--3--4----4p--3--1----|--0-------------------|


  Q    Q    Q    Q       Q    E  E  E  E  E  E     E   E  Q    E   E  Q     
----------------------|-------------------------|--------------------------|
----------------------|-------------------------|--------------------------|
--4----5--------------|-------------------------|--------------------------|
------------6----3----|--0----0--0--0--0--0--0--|--4p--3--4----4p--3--4----|


  Q    E  E  E  E  E  E     E   E  Q    Q    Q       Q    E  E  E  E  E  E   
-------------------------|------------------------|-------------------------|
-------------------------|--------------0---------|-------------------------|
-------------------------|--2p--1--2---------4----|-------------------------|
--0----0--0--0--0--0--0--|------------------------|--0----0--0--0--0--0--0--|


  E   E  Q    E   E  Q       Q    Q    Q    Q       Q    Q    Q    Q     
--------------------------|----------------------|----------------------|
--------------------------|----------------------|----------------------|
--------------------------|-------8----5---------|--4----5--------------|
--4p--3--4----4p--3--1----|--0-------------------|------------6----3----|


  Q    E  E  E  E  E  E     E   E  Q    E   E  Q       Q    E  E  E  E  E  E   
-------------------------|--------------------------|-------------------------|
-------------------------|--------------------------|-------------------------|
-------------------------|--------------------------|-------------------------|
--0----0--0--0--0--0--0--|--4p--3--4----4p--3--4----|--0----0--0--0--0--0--0--|


  E   E  Q    Q    Q       Q    E  E  E  E  E  E     E   E  Q    E   E  Q     
------------------------|-------------------------|--------------------------|
--------------0---------|-------------------------|--------------------------|
--2p--1--2---------4----|-------------------------|--------------------------|
------------------------|--0----0--0--0--0--0--0--|--4p--3--4----4p--3--1----|


  Q    Q    Q    Q       Q    Q    Q    Q       Q    E  E  E  E  E  E   
----------------------|----------------------|-------------------------|
----------------------|----------------------|-------------------------|
-------8----5---------|--4----5--------------|-------------------------|
--0-------------------|------------6----3----|--0----0--0--0--0--0--0--|


  E   E  Q    E   E  Q       Q    E  E  E  E  E  E     E   E  Q    Q    Q     
--------------------------|-------------------------|------------------------|
--------------------------|-------------------------|--------------0---------|
--------------------------|-------------------------|--2p--1--2---------4----|
--4p--3--4----4p--3--4----|--0----0--0--0--0--0--0--|------------------------|


  Q    E  E  E  E  E  E     E   E  Q    E   E  Q       Q    Q    Q    Q     
-------------------------|--------------------------|----------------------|
-------------------------|--------------------------|----------------------|
-------------------------|--------------------------|-------8----5---------|
--0----0--0--0--0--0--0--|--4p--3--4----4p--3--1----|--0-------------------|


  Q    Q    Q    Q       Q    H.             
----------------------|--------------------||
----------------------|--------------------||
--4----5--------------|--------------------||
------------6----3----|--0-----------------||




Duration Legend
---------------
W - whole
H - half
Q - quarter
E - 8th
S - 16th
T - 32nd
X - 64th
. - note dotted
|-n-|  - n-tuplets


Tablature Legend
----------------
L - tied note
x - dead note
g - grace note
(n) - ghost note
> - accentuded note
NH - natural harmonic
AH - artificial harmonic
TH - tapped harmonic
SH - semi harmonic
PH - pitch harmonic
h - hammer on
p - pull off
b - bend
br - bendRelease
pb - preBend
pbr - preBendRelease
brb - bendReleaseBend
\n/ - tremolo bar dip
\n - tremolo bar dive
-/n - tremolo bar Release up
/n\ - tremolo bar inverted dip
/n - tremolo bar return
-\n - tremolo bar Release down
S - shift slide
s - legato slide
/ -  slide into from below or out of upwards
\ -  slide into from above or out of downwards
~ - vibrato
W - wide vibrato
tr - trill
TP - tremolo picking
T - tapping
S - slap
P - pop
< - fade in
^ - brush up
v - brush down





Comments


Popular Napalm Death tabs & chords
Greed Killing Bass Tabs
Kill Bass Tabs
Necessary Evil 2 Bass Tabs
Vision Conquest Bass Tabs
Deceiver Tabs
Deciever Tabs
Extremity Retained Tabs
Inside The Torn Apart Tabs
Narcalectic Tabs
Suffer Little Children Tabs


Song lyrics



↑ Back to top | Tablatures and chords are parodies/interpretations of the original songs. You may use it for private study, scholarship, research or language learning purposes only
© 2014 AZChords.com Contact us | Privacy policy | DMCA | Add/correct tabs | Request tabs | Top 50 tabs