>
 >
Continuing War On Stupidity

Continuing War On Stupidity Guitar Tabs

Napalm Death - Continuing War On Stupidity chords, tabs, tablatures, lyrics

Guitar lessons | Add/correct | Request | Top 50 tabs Artists:  A B C D E F G H I J K L M N O P Q R S T U V W X Y Z 0-9

Continuing War On Stupidity Guitar Tabs – Napalm Death

CD, Sheet music, Poster

Do you like Continuing War On Stupidity? Share with your friends now
Bass TabsTabs
                          Continuing War On Stupidity                           


                                                                    Napalm Death
Raita 1



      Q    E  E  Q    E  E     Q    E  E  Q    E  E     Q    E  E  Q    E  E   
D||-------------------------|------------------------|------------------------|
A||-------------------------|------------------------|------------------------|
F||*------------------------|------------------------|------------------------|
C||*-------5--4-------5--4--|-------5--4-------5--4--|-------5--4-------5--4--|
G||-------------------------|------------------------|------------------------|
D||---3----------3----------|--3----------3----------|--3----------3----------|


  Q    E  E  Q    E  E        Q    E  E  Q    E  E     Q    E  E  Q    E  E   
-------------------------||-------------------------|------------------------|
-------------------------||-------------------------|------------------------|
------------------------*||*------------------------|------------------------|
-------5--4-------5--4--*||*-------5--4-------5--4--|-------5--4-------5--4--|
-------------------------||-------------------------|------------------------|
--3----------3-----------||---3----------3----------|--3----------3----------|


  Q    E  E  Q    E  E     Q    E  E  Q    E  E     
------------------------|-------------------------||
------------------------|-------------------------||
------------------------|------------------------*||
-------5--4-------5--4--|-------5--4-------5--4--*||
------------------------|-------------------------||
--3----------3----------|--3----------3-----------||


  E  E  E   E  E  E  E   E     E  E  E   E  E   E  E   E   
----------------------------|-----------------------------|
----------------------------|-----------------------------|
----------------------------|-----------------------------|
----------------------------|-----------------------------|
--------8p--5--------8p--5--|--------8p--5--8p--5--8p--5--|
--0--0---------0--0---------|--0--0-----------------------|


  E  E  E   E  E  E  E   E     E  E  E   E  E   E  E   E   
----------------------------|-----------------------------|
----------------------------|-----------------------------|
----------------------------|-----------------------------|
----------------------------|-----------------------------|
--------8p--5--------8p--5--|--------8p--5--8p--5--8p--5--|
--0--0---------0--0---------|--0--0-----------------------|


  E  E   E   E  E  E   E   E     E  E   E   E   E   E   E   E   
------------------------------|--------------------------------|
------------------------------|--------------------------------|
------------------------------|--------------------------------|
------------------------------|--------------------------------|
--------11p--8--------11p--8--|--------11p--8--11p--8--11p--8--|
--0--0----------0--0----------|--0--0--------------------------|


  E  E   E   E  E  E   E   E     E  E   E   E   E   E   E   E   
------------------------------|--------------------------------|
------------------------------|--------------------------------|
------------------------------|--------------------------------|
------------------------------|--------------------------------|
--------11p--8--------11p--8--|--------11p--8--11p--8--11p--8--|
--0--0----------0--0----------|--0--0--------------------------|


  E  E  E   E  E  E  E   E     E  E  E   E  E   E  E   E   
----------------------------|-----------------------------|
----------------------------|-----------------------------|
----------------------------|-----------------------------|
--------9p--6--------9p--6--|--------9p--6--9p--6--9p--6--|
----------------------------|-----------------------------|
--0--0---------0--0---------|--0--0-----------------------|


  E  E  E   E  E  E  E   E     E  E  E   E  E   E  E   E   
----------------------------|-----------------------------|
----------------------------|-----------------------------|
----------------------------|-----------------------------|
--------9p--6--------9p--6--|--------9p--6--9p--6--9p--6--|
----------------------------|-----------------------------|
--0--0---------0--0---------|--0--0-----------------------|


  E  E   E   E  E  E   E   E     E  E   E   E   E   E   E   E   
------------------------------|--------------------------------|
------------------------------|--------------------------------|
------------------------------|--------------------------------|
--------12p--9--------12p--9--|--------12p--9--12p--9--12p--9--|
------------------------------|--------------------------------|
--0--0----------0--0----------|--0--0--------------------------|


  E  E   E   E  E  E   E   E     E  E   E   E   E   E   E   E   
------------------------------|--------------------------------|
------------------------------|--------------------------------|
------------------------------|--------------------------------|
--------12p--9--------12p--9--|--------12p--9--12p--9--12p--9--|
------------------------------|--------------------------------|
--0--0----------0--0----------|--0--0--------------------------|


  Q    E  E  Q    E  E     Q    E  E  Q    E  E     Q    E  E  Q    E  E   
------------------------|------------------------|------------------------|
------------------------|------------------------|------------------------|
------------------------|------------------------|------------------------|
-------5--4-------5--4--|-------5--4-------5--4--|-------5--4-------5--4--|
------------------------|------------------------|------------------------|
--3----------3----------|--3----------3----------|--3----------3----------|


  Q    E  E  Q    E  E       Q    E  E  Q    E  E     Q    E  E  Q    E  E   
------------------------||-------------------------|------------------------|
------------------------||-------------------------|------------------------|
------------------------||*------------------------|------------------------|
-------5--4-------5--4--||*-------5--4-------5--4--|-------5--4-------5--4--|
------------------------||-------------------------|------------------------|
--3----------3----------||---3----------3----------|--3----------3----------|


  Q    E  E  Q    E  E     Q    E  E  Q    E  E     
------------------------|-------------------------||
------------------------|-------------------------||
------------------------|------------------------*||
-------5--4-------5--4--|-------5--4-------5--4--*||
------------------------|-------------------------||
--3----------3----------|--3----------3-----------||


  E  E  E   E  E  E  E   E     E  E  E   E  E   E  E   E   
----------------------------|-----------------------------|
----------------------------|-----------------------------|
----------------------------|-----------------------------|
----------------------------|-----------------------------|
--------8p--5--------8p--5--|--------8p--5--8p--5--8p--5--|
--0--0---------0--0---------|--0--0-----------------------|


  E  E  E   E  E  E  E   E     E  E  E   E  E   E  E   E   
----------------------------|-----------------------------|
----------------------------|-----------------------------|
----------------------------|-----------------------------|
----------------------------|-----------------------------|
--------8p--5--------8p--5--|--------8p--5--8p--5--8p--5--|
--0--0---------0--0---------|--0--0-----------------------|


  E  E   E   E  E  E   E   E     E  E   E   E   E   E   E   E   
------------------------------|--------------------------------|
------------------------------|--------------------------------|
------------------------------|--------------------------------|
------------------------------|--------------------------------|
--------11p--8--------11p--8--|--------11p--8--11p--8--11p--8--|
--0--0----------0--0----------|--0--0--------------------------|


  E  E   E   E  E  E   E   E     E  E   E   E   E   E   E   E   
------------------------------|--------------------------------|
------------------------------|--------------------------------|
------------------------------|--------------------------------|
------------------------------|--------------------------------|
--------11p--8--------11p--8--|--------11p--8--11p--8--11p--8--|
--0--0----------0--0----------|--0--0--------------------------|


  E  E  E   E  E  E  E   E     E  E  E   E  E   E  E   E   
----------------------------|-----------------------------|
----------------------------|-----------------------------|
----------------------------|-----------------------------|
--------9p--6--------9p--6--|--------9p--6--9p--6--9p--6--|
----------------------------|-----------------------------|
--0--0---------0--0---------|--0--0-----------------------|


  E  E  E   E  E  E  E   E     E  E  E   E  E   E  E   E   
----------------------------|-----------------------------|
----------------------------|-----------------------------|
----------------------------|-----------------------------|
--------9p--6--------9p--6--|--------9p--6--9p--6--9p--6--|
----------------------------|-----------------------------|
--0--0---------0--0---------|--0--0-----------------------|


  E  E   E   E  E  E   E   E     E  E   E   E   E   E   E   E   
------------------------------|--------------------------------|
------------------------------|--------------------------------|
------------------------------|--------------------------------|
--------12p--9--------12p--9--|--------12p--9--12p--9--12p--9--|
------------------------------|--------------------------------|
--0--0----------0--0----------|--0--0--------------------------|


  E  E   E   E  E  E   E   E     E  E   E   E   E   E   E   E   
------------------------------|--------------------------------|
------------------------------|--------------------------------|
------------------------------|--------------------------------|
--------12p--9--------12p--9--|--------12p--9--12p--9--12p--9--|
------------------------------|--------------------------------|
--0--0----------0--0----------|--0--0--------------------------|


  Q     Q    Q    Q       Q    Q    Q    Q       Q     Q    Q    Q     
-----------------------|----------------------|-----------------------|
-----------------------|----------------------|-----------------------|
-----------------------|----------------------|-----------------------|
-------10----7----9----|--6----7----6----7----|-------10----7----9----|
--------8----5----7----|--4----5----4----5----|--------8----5----7----|
--0--------------------|----------------------|--0--------------------|


  Q    Q    Q    Q       Q     Q    Q    Q       Q    Q    Q    Q     
----------------------|-----------------------|----------------------|
----------------------|-----------------------|----------------------|
----------------------|-----------------------|----------------------|
--6----7----6----7----|-------10----7----9----|--6----7----6----7----|
--4----5----4----5----|--------8----5----7----|--4----5----4----5----|
----------------------|--0--------------------|----------------------|


  Q     Q    Q    Q       Q    Q    Q    Q       Q     E.   S E  E  E.   S  
-----------------------|----------------------|----------------------------|
-----------------------|----------------------|----------------------------|
-----------------------|----------------------|----------------------------|
-------10----7----9----|--6----7----6----7----|-------10s---7-------9s---6-|
--------8----5----7----|--4----5----4----5----|----------------------------|
--0--------------------|----------------------|--0------------0--0---------|


  E  E  E.   S E  E  E.   S    Q     E.   S E  E  E.   S  
----------------------------|----------------------------|
----------------------------|----------------------------|
----------------------------|----------------------------|
----------------------------|-------10s---7-------9s---6-|
--------5s---8-------5s---8-|----------------------------|
--0--0---------0--0---------|--0------------0--0---------|


  E  E  E.   S E  E  E.   S    Q     E.   S E  E  E.   S  
----------------------------|----------------------------|
----------------------------|----------------------------|
----------------------------|----------------------------|
----------------------------|-------10s---7-------9s---6-|
--------8s---5-------8s---5-|----------------------------|
--0--0---------0--0---------|--0------------0--0---------|


  E  E  E.   S E  E  E.   S    Q     E.   S E  E  E.   S  
----------------------------|----------------------------|
----------------------------|----------------------------|
----------------------------|----------------------------|
----------------------------|-------10s---7-------9s---6-|
--------5s---8-------5s---8-|----------------------------|
--0--0---------0--0---------|--0------------0--0---------|


  E  E  E.   S E  E  E.   S    Q     E.   S E  E  E.   S  
----------------------------|----------------------------|
----------------------------|----------------------------|
----------------------------|----------------------------|
----------------------------|-------10s---7-------9s---6-|
--------8s---5-------8s---5-|----------------------------|
--0--0---------0--0---------|--0------------0--0---------|


  E  E  E.   S E  E  E.   S    Q     E.   S E  E  E.   S  
----------------------------|----------------------------|
----------------------------|----------------------------|
----------------------------|----------------------------|
----------------------------|-------10s---7-------9s---6-|
--------5s---8-------5s---8-|----------------------------|
--0--0---------0--0---------|--0------------0--0---------|


  E  E  E.   S E  E  E.   S    Q     E.   S E  E  E.   S  
----------------------------|----------------------------|
----------------------------|----------------------------|
----------------------------|----------------------------|
----------------------------|-------10s---7-------9s---6-|
--------8s---5-------8s---5-|----------------------------|
--0--0---------0--0---------|--0------------0--0---------|


  E  E  E.   S E  E  E.   S    Q     E.   S E  E  E.   S  
----------------------------|----------------------------|
----------------------------|----------------------------|
----------------------------|----------------------------|
----------------------------|-------10s---7-------9s---6-|
--------5s---8-------5s---8-|----------------------------|
--0--0---------0--0---------|--0------------0--0---------|


  E  E  E.   S E  E  E.   S    Q    Q    Q    Q       Q    Q    Q    Q     
----------------------------|----------------------|----------------------|
----------------------------|----------------------|----------------------|
----------------------------|----------------------|----------------------|
----------------------------|--2-------------------|----------------------|
--------8s---5-------8s---5-|--2----2----2----2----|--2----2----2----2----|
--0--0---------0--0---------|--0----0----0----0----|--0----0----0----0----|


  Q    Q    H           Q    Q    H           Q    Q    Q    Q     
---------------------|---------------------|----------------------|
---------------------|---------------------|----------------------|
---------------------|---------------------|----------------------|
--4----3----4--------|--4----3----4--------|--2-------------------|
--2----1----2--------|--2----1----2--------|--2----2----2----2----|
---------------------|---------------------|--0----0----0----0----|


  Q    Q    Q    Q       E   E  Q    Q    E   E     Q    Q    E   E  Q     
----------------------|--------------------------|------------------------|
----------------------|--------------------------|------------------------|
----------------------|--------------------------|------------------------|
----------------------|--------------------------|------------------------|
--2----2----2----2----|--------------------------|------------------------|
--0----0----0----0----|--5h--6--5----5----5h--6--|--5----5----5h--6--5----|


  Q    Q    Q    Q       Q    Q    Q    Q       Q    Q    H         
----------------------|----------------------|---------------------|
----------------------|----------------------|---------------------|
----------------------|----------------------|---------------------|
--2-------------------|----------------------|--4----3----4--------|
--2----2----2----2----|--2----2----2----2----|--2----1----2--------|
--0----0----0----0----|--0----0----0----0----|---------------------|


  Q    Q    H           Q    Q    Q    Q       Q    Q    Q    Q     
---------------------|----------------------|----------------------|
---------------------|----------------------|----------------------|
---------------------|----------------------|----------------------|
--4----3----7--------|--2-------------------|----------------------|
--2----1----5--------|--2----2----2----2----|--2----2----2----2----|
---------------------|--0----0----0----0----|--0----0----0----0----|


  E   E  Q    Q    E   E     Q    Q    E   E  Q       Q    Q    Q    Q     
--------------------------|------------------------|----------------------|
--------------------------|------------------------|----------------------|
--------------------------|------------------------|----------------------|
--------------------------|------------------------|--2-------------------|
--------------------------|------------------------|--2----2----2----2----|
--5h--6--5----5----5h--6--|--5----5----5h--6--5----|--0----0----0----0----|


  Q    Q    Q    Q       Q    Q    H           Q    Q    H         
----------------------|---------------------|---------------------|
----------------------|---------------------|---------------------|
----------------------|---------------------|---------------------|
----------------------|--4----3----4--------|--4----3----4--------|
--2----2----2----2----|--2----1----2--------|--2----1----2--------|
--0----0----0----0----|---------------------|---------------------|


  Q    Q    Q    Q       Q    Q    Q    Q       E   E  Q    Q    E   E   
----------------------|----------------------|--------------------------|
----------------------|----------------------|--------------------------|
----------------------|----------------------|--------------------------|
--2-------------------|----------------------|--------------------------|
--2----2----2----2----|--2----2----2----2----|--------------------------|
--0----0----0----0----|--0----0----0----0----|--5h--6--5----5----5h--6--|


  Q    Q    E   E  Q       Q    Q    Q    Q       Q    Q    Q    Q     
------------------------|----------------------|----------------------|
------------------------|----------------------|----------------------|
------------------------|----------------------|----------------------|
------------------------|--2-------------------|----------------------|
------------------------|--2----2----2----2----|--2----2----2----2----|
--5----5----5h--6--5----|--0----0----0----0----|--0----0----0----0----|


  Q    Q    H           Q    Q    H           Q    Q    Q    Q     
---------------------|---------------------|----------------------|
---------------------|---------------------|----------------------|
---------------------|---------------------|----------------------|
--4----3----4--------|--4----3----7--------|--2-------------------|
--2----1----2--------|--2----1----5--------|--2----2----2----2----|
---------------------|---------------------|--0----0----0----0----|


  Q    Q    Q    Q       E   E  E   E  E   E  E   E   
----------------------|------------------------------|
----------------------|------------------------------|
----------------------|------------------------------|
----------------------|------------------------------|
--2----2----2----2----|------------------------------|
--0----0----0----0----|--6p--5--6p--5--6p--5--6p--5--|


  E   E  E   E  E   E  Q       E   E  E   E  E   E  E   E   
----------------------------|------------------------------|
----------------------------|------------------------------|
----------------------------|------------------------------|
----------------------------|------------------------------|
----------------------------|------------------------------|
--6p--5--6p--5--6p--5--3----|--6p--5--6p--5--6p--5--6p--5--|


  E   E  E   E  E   E  Q       E   E  E   E  E   E  E   E   
----------------------------|------------------------------|
----------------------------|------------------------------|
----------------------------|------------------------------|
----------------------------|------------------------------|
-----------------------7----|------------------------------|
--6p--5--6p--5--6p--5-------|--6p--5--6p--5--6p--5--6p--5--|


  E   E  E   E  E   E  Q       E   E  E   E  E   E  E   E   
----------------------------|------------------------------|
----------------------------|------------------------------|
----------------------------|------------------------------|
----------------------------|------------------------------|
----------------------------|------------------------------|
--6p--5--6p--5--6p--5--3----|--6p--5--6p--5--6p--5--6p--5--|


  E   E  E   E  E   E  Q       E   E  E   E  E   E  E   E   
----------------------------|------------------------------|
----------------------------|------------------------------|
----------------------------|------------------------------|
----------------------------|------------------------------|
-----------------------7----|------------------------------|
--6p--5--6p--5--6p--5-------|--6p--5--6p--5--6p--5--6p--5--|


  E   E  E   E  E   E  Q       E  Q    E  E  Q    E     E  Q    E  E  Q    E   
----------------------------|------------------------|------------------------|
----------------------------|------------------------|------------------------|
----------------------------|------------------------|-------------7--7----7--|
----------------------------|--9--9----9--9--9----9--|--9--9----9--7--7----7--|
----------------------------|--9--9----9--9--9----9--|--9--9----9--5--5----5--|
--6p--5--6p--5--6p--5--3----|--7--7----7--7--7----7--|--7--7----7-------------|


  E  Q    E  E  Q    E     E  Q    E   E   Q     E     E  Q    E  E  Q    E   
------------------------|---------------------------|------------------------|
------------------------|---------------------------|------------------------|
--8--8----8--8--8----8--|--8--8----8--11--11----11--|------------------------|
--8--8----8--8--8----8--|--8--8----8--11--11----11--|--9--9----9--9--9----9--|
--6--6----6--6--6----6--|--6--6----6---9---9-----9--|--9--9----9--9--9----9--|
------------------------|---------------------------|--7--7----7--7--7----7--|


  E  Q    E  E  Q    E     E  Q    E  E  Q    E     E  Q    E   E   Q     E   
------------------------|------------------------|---------------------------|
------------------------|------------------------|---------------------------|
-------------7--7----7--|--8--8----8--8--8----8--|--8--8----8--11--11----11--|
--9--9----9--7--7----7--|--8--8----8--8--8----8--|--8--8----8--11--11----11--|
--9--9----9--5--5----5--|--6--6----6--6--6----6--|--6--6----6---9---9-----9--|
--7--7----7-------------|------------------------|---------------------------|


  E   E  E   E  E   E  E   E     E   E  E   E  E   E  Q     
------------------------------|----------------------------|
------------------------------|----------------------------|
------------------------------|----------------------------|
------------------------------|----------------------------|
------------------------------|-----------------------7----|
--6p--5--6p--5--6p--5--6p--5--|--6p--5--6p--5--6p--5-------|


  E   E  E   E  E   E  E   E     E   E  E   E  E   E  Q     
------------------------------|----------------------------|
------------------------------|----------------------------|
------------------------------|----------------------------|
------------------------------|----------------------------|
------------------------------|----------------------------|
--6p--5--6p--5--6p--5--6p--5--|--6p--5--6p--5--6p--5--3----|


  E   E  E   E  E   E  E   E     E   E  E   E  E   E  Q     
------------------------------|----------------------------|
------------------------------|----------------------------|
------------------------------|----------------------------|
------------------------------|----------------------------|
------------------------------|-----------------------7----|
--6p--5--6p--5--6p--5--6p--5--|--6p--5--6p--5--6p--5-------|


  E   E  E   E  E   E  E   E     E   E  E   E  E   E  Q     
------------------------------|----------------------------|
------------------------------|----------------------------|
------------------------------|----------------------------|
------------------------------|----------------------------|
------------------------------|----------------------------|
--6p--5--6p--5--6p--5--6p--5--|--6p--5--6p--5--6p--5--3----|


  E  Q    E  E  Q    E     E  Q    E  E  Q    E     E  Q    E  E  Q    E   
------------------------|------------------------|------------------------|
------------------------|------------------------|------------------------|
------------------------|-------------7--7----7--|--8--8----8--8--8----8--|
--9--9----9--9--9----9--|--9--9----9--7--7----7--|--8--8----8--8--8----8--|
--9--9----9--9--9----9--|--9--9----9--5--5----5--|--6--6----6--6--6----6--|
--7--7----7--7--7----7--|--7--7----7-------------|------------------------|


  E  Q    E   E   Q     E     E  Q    E  E  Q    E     E  Q    E  E  Q    E   
---------------------------|------------------------|------------------------|
---------------------------|------------------------|------------------------|
--8--8----8--11--11----11--|------------------------|-------------7--7----7--|
--8--8----8--11--11----11--|--9--9----9--9--9----9--|--9--9----9--7--7----7--|
--6--6----6---9---9-----9--|--9--9----9--9--9----9--|--9--9----9--5--5----5--|
---------------------------|--7--7----7--7--7----7--|--7--7----7-------------|


  E  Q    E  E  Q    E     E  Q    E   E   Q     E     Q    E  E  E  E  E  E   
------------------------|---------------------------|-------------------------|
------------------------|---------------------------|-------------------------|
--8--8----8--8--8----8--|--8--8----8--11--11----11--|-------------------------|
--8--8----8--8--8----8--|--8--8----8--11--11----11--|--2----------------------|
--6--6----6--6--6----6--|--6--6----6---9---9-----9--|--2----------------------|
------------------------|---------------------------|--0----0--0--0--0--0--0--|


  E   E   Q    E   E   Q       Q    E  E  E  E  E  E   
----------------------------|-------------------------|
----------------------------|-------------------------|
----------------------------|-------------------------|
--6s--5s--6----6s--5s--6----|--2----------------------|
--6s--5s--6----6s--5s--6----|--2----------------------|
--4s--3s--4----4s--3s--4----|--0----0--0--0--0--0--0--|


  E   E   Q    Q    Q       Q    E  E  E  E  E  E   
-------------------------|-------------------------|
-------------------------|-------------------------|
--4s--3s--4----7----6----|-------------------------|
--4s--3s--4----7----6----|--2----------------------|
--2s--1s--2----5----4----|--2----------------------|
-------------------------|--0----0--0--0--0--0--0--|


  E   E   Q    E   E   Q       Q     Q    Q    Q       Q    Q    Q    Q     
----------------------------|-----------------------|----------------------|
----------------------------|-----------------------|----------------------|
----------------------------|-----------------------|----------------------|
--6s--5s--6----6s--5s--3----|-------10----7---------|--6----7--------------|
--6s--5s--6----6s--5s--3----|--------8----5---------|--4----5----8----5----|
--4s--3s--4----4s--3s--1----|--0--------------------|------------6----3----|


  Q    E  E  E  E  E  E     E   E   Q    E   E   Q     
-------------------------|----------------------------|
-------------------------|----------------------------|
-------------------------|----------------------------|
--2----------------------|--6s--5s--6----6s--5s--6----|
--2----------------------|--6s--5s--6----6s--5s--6----|
--0----0--0--0--0--0--0--|--4s--3s--4----4s--3s--4----|


  Q    E  E  E  E  E  E     E   E   Q    Q    Q       Q    E  E  E  E  E  E   
-------------------------|-------------------------|-------------------------|
-------------------------|-------------------------|-------------------------|
-------------------------|--4s--3s--4----7----6----|-------------------------|
--2----------------------|--4s--3s--4----7----6----|--2----------------------|
--2----------------------|--2s--1s--2----5----4----|--2----------------------|
--0----0--0--0--0--0--0--|-------------------------|--0----0--0--0--0--0--0--|


  E   E   Q    E   E   Q       Q     Q    Q    Q       Q    Q    Q    Q     
----------------------------|-----------------------|----------------------|
----------------------------|-----------------------|----------------------|
----------------------------|-----------------------|----------------------|
--6s--5s--6----6s--5s--3----|-------10----7---------|--6----7--------------|
--6s--5s--6----6s--5s--3----|--------8----5---------|--4----5----8----5----|
--4s--3s--4----4s--3s--1----|--0--------------------|------------6----3----|


  Q    E  E  E  E  E  E     E   E   Q    E   E   Q     
-------------------------|----------------------------|
-------------------------|----------------------------|
-------------------------|----------------------------|
--2----------------------|--6s--5s--6----6s--5s--6----|
--2----------------------|--6s--5s--6----6s--5s--6----|
--0----0--0--0--0--0--0--|--4s--3s--4----4s--3s--4----|


  Q    E  E  E  E  E  E     E   E   Q    Q    Q       Q    E  E  E  E  E  E   
-------------------------|-------------------------|-------------------------|
-------------------------|-------------------------|-------------------------|
-------------------------|--4s--3s--4----7----6----|-------------------------|
--2----------------------|--4s--3s--4----7----6----|--2----------------------|
--2----------------------|--2s--1s--2----5----4----|--2----------------------|
--0----0--0--0--0--0--0--|-------------------------|--0----0--0--0--0--0--0--|


  E   E   Q    E   E   Q       Q     Q    Q    Q       Q    Q    Q    Q     
----------------------------|-----------------------|----------------------|
----------------------------|-----------------------|----------------------|
----------------------------|-----------------------|----------------------|
--6s--5s--6----6s--5s--3----|-------10----7---------|--6----7--------------|
--6s--5s--6----6s--5s--3----|--------8----5---------|--4----5----8----5----|
--4s--3s--4----4s--3s--1----|--0--------------------|------------6----3----|


  Q    E  E  E  E  E  E     E   E   Q    E   E   Q     
-------------------------|----------------------------|
-------------------------|----------------------------|
-------------------------|----------------------------|
--2----------------------|--6s--5s--6----6s--5s--6----|
--2----------------------|--6s--5s--6----6s--5s--6----|
--0----0--0--0--0--0--0--|--4s--3s--4----4s--3s--4----|


  Q    E  E  E  E  E  E     E   E   Q    Q    Q       Q    E  E  E  E  E  E   
-------------------------|-------------------------|-------------------------|
-------------------------|-------------------------|-------------------------|
-------------------------|--4s--3s--4----7----6----|-------------------------|
--2----------------------|--4s--3s--4----7----6----|--2----------------------|
--2----------------------|--2s--1s--2----5----4----|--2----------------------|
--0----0--0--0--0--0--0--|-------------------------|--0----0--0--0--0--0--0--|


  E   E   Q    E   E   Q       Q     Q    Q    Q       Q    Q    Q    Q     
----------------------------|-----------------------|----------------------|
----------------------------|-----------------------|----------------------|
----------------------------|-----------------------|----------------------|
--6s--5s--6----6s--5s--3----|-------10----7---------|--6----7--------------|
--6s--5s--6----6s--5s--3----|--------8----5---------|--4----5----8----5----|
--4s--3s--4----4s--3s--1----|--0--------------------|------------6----3----|


  Q    H.             
--------------------||
--------------------||
--------------------||
--------------------||
--2-----------------||
--0-----------------||




Duration Legend
---------------
W - whole
H - half
Q - quarter
E - 8th
S - 16th
T - 32nd
X - 64th
. - note dotted
|-n-|  - n-tuplets


Tablature Legend
----------------
L - tied note
x - dead note
g - grace note
(n) - ghost note
> - accentuded note
NH - natural harmonic
AH - artificial harmonic
TH - tapped harmonic
SH - semi harmonic
PH - pitch harmonic
h - hammer on
p - pull off
b - bend
br - bendRelease
pb - preBend
pbr - preBendRelease
brb - bendReleaseBend
\n/ - tremolo bar dip
\n - tremolo bar dive
-/n - tremolo bar Release up
/n\ - tremolo bar inverted dip
/n - tremolo bar return
-\n - tremolo bar Release down
S - shift slide
s - legato slide
/ -  slide into from below or out of upwards
\ -  slide into from above or out of downwards
~ - vibrato
W - wide vibrato
tr - trill
TP - tremolo picking
T - tapping
S - slap
P - pop
< - fade in
^ - brush up
v - brush down





Comments


Popular Napalm Death tabs & chords
Back From The Dead Bass Tabs
Breed To Breathe Bass Tabs
Kill Bass Tabs
On The Brink Of Extinction Bass Tabs
Circle Of Hypocrisy Tabs
Lowlife Tabs
Reflect On Conflict Tabs
Suffer Little Children 1 Tabs
The Infiltraitor Tabs
World Keeps Turning Tabs


Song lyrics



↑ Back to top | Tablatures and chords are parodies/interpretations of the original songs. You may use it for private study, scholarship, research or language learning purposes only
© 2014 AZChords.com Contact us | Privacy policy | DMCA | Add/correct tabs | Request tabs | Top 50 tabs