>
 >
Circle Of Hipocrisy

Circle Of Hipocrisy Guitar Tabs

Napalm Death - Circle Of Hipocrisy chords, tabs, tablatures, lyrics

Guitar lessons | Add/correct | Request | Top 50 tabs Artists:  A B C D E F G H I J K L M N O P Q R S T U V W X Y Z 0-9

Circle Of Hipocrisy Guitar Tabs – Napalm Death

CD, Sheet music, Poster

Do you like Circle Of Hipocrisy? Share with your friends now
Tabs
Circle of Hipocrisy
As recorded by Napalm Death
(From the Album HARMONY CORRUPTION)

Music by Napalm Death
  
.  - palm mute                  /  - slide up to
\  - slide down to              ~  - vibrato
"  - tremelo picking           ( ) - ghost note
b  - bend                       h  - hammer-on
fb - full bend (1 step)         p  - pull-off
hb - half bend (1/2 step)       r  - release a bend
t  - tapping                    ah - artificial harmonic

Tune Gtr to D


[Drum Fill]

[Riff A]
[--------------------------------|--------------------------------]
[--------------------------------|--------------------------------]
[*-------------------------------|-------------------------------*]GTRS 1&2
[*-------------------------------|-------------------------------*] 
[--8--------5--------7__8__7__8--|-6--------3--------6__7__6__7---]
[--6--0--0--3--0--0----h--p--h---|-4--0--0--1--0--0----h--p--h----]
      .  .     .  .                   .  .     .  .

[--------------------------------|--------------------------------]
[--------------------------------|--------------------------------]
[*-------------------------------|-------------------------------*]GTRS 1&2
[*-------------------------------|-------------------------------*]
[--8--------5--------6__7__6__7--|-6--------3--------5__6__5__6---]
[--6--0--0--3--0--0----h--p--h---|-4--0--0--1--0--0----h--p--h----]
      .  .     .  .                   .  .     .  .


Play Riff A 1 time


[Riff A.1]
[--------------------------------|--------------------------------]
[--------------------------------|--------------------------------]
[*-------------------------------|-------------------------------*]GTRS 1&2
[*-------------------------------|-------------------------------*]
[--8--------5--------6__7__6__7--|-6--------3--------5__6__5__6---]
[--6--0--0--3--0--0----h--p--h---|-4--0--0--1--0--0----h--p--h----]
      .  .     .  .                   .  .     .  .
                             
[--------------------------------|--------------------------------]
[--------------------------------|--------------------------------]
[*-------------------------------|-------------------------------*]GTRS 1&2
[*-------------------------------|-------------------------------*]
[--8--------5--------5__6__5__6--|-6--------3--------6--5_6_5_6---]
[--6--0--0--3--0--0----h--p--h---|-4--0--0--1--0--0------h-p-h----]
      .  .     .  .                   .  .     .  .


Play Riff A.1 1 time


[Riff B]
[------------------|--------------------------------]
[------------------|--------------------------------]
[*-----------------|-------------------------------*]GTRS 1&2
[*-----------------|-------------------------------*] 
[--5-------------3-|-(3)----------------------------]
[--3----0-0-0-0--1-|-(1)-0-0-0-0-0-0-0-0-0-0-0-0-0--]
        . . . .          . . . . . . . . . . . . . .  
 __________________  _______________________________
|1-3.              |4.                              |
[------------------|--------------------------------]
[------------------|--------------------------------]
[*-----------------|-------------------------------*]GTRS 1&2
[*---------7-------|---------7\6-------------------*]
[--3--5/6--5--6----|-3--5/6--5\4--------------------]
[--1--3/4-----4----|-1--3/4---sl--4--0--1--4--3--1--]
       sl                sl                 


Play Riff B 1 time


[Riff A.2]
[--------------------------------|--------------------------------]
[--------------------------------|--------------------------------]
[*-------------------------------|-------------------------------*]GTRS 1&2
[*-------------------------------|-------------------------------*]
[--5--------6--------6__7__6__7--|-4--------5--------5__6__5__6---]
[--3--0--0--4--0--0----h--p--h---|-2--0--0--3--0--0----h--p--h----]
      .  .     .  .                   .  .     .  .

[--------------------------------|--------------------------------]
[--------------------------------|--------------------------------]
[*-------------------------------|-------------------------------*]GTRS 1&2
[*-------------------------------|-------------------4\3---------*] 
[--5--------6--------5__6__5__6--|-4--------5--------2\1--4-------]
[--3--0--0--4--0--0----h--p--h---|-2--0--0--3--0--0---sl--2-------]
      .  .     .  .                   .  .     .  .


[Riff A.3]
[--------------------------------|--------------------------------]
[--------------------------------|--------------------------------]
[*-------------------------------|-------------------------------*]GTRS 1&2
[*-------------------------------|-------------------------------*]
[--4--------5--------5__6__5__6--|-3--------4--------4__5__4__5---]
[--2--0--0--3--0--0----h--p--h---|-1--0--0--2--0--0----h--p--h----]
      .  .     .  .                   .  .     .  .

[--------------------------------|--------------------------------]
[--------------------------------|--------------------------------]
[*-------------------------------|-------------------------------*]GTRS 1&2
[*-------------------------------|-------------------------------*] 
[--4--------5--------4__5__4__5--|--3--------4--------8\7--3------]
[--2--0--0--3--0--0----h--p--h---|--1--0--0--2--0--0--6\5--1------]
      .  .     .  .                    .  .     .  .   sl


Play Riff B   2 times
Play Riff A.2 1 time
Play Riff A.3 1 time


[Riff C]                 [3tx]                           [3tx]
[----------------------------|-------------------------------]
[----------------------------|-------------------------------]
[*---------------------------|------------------------------*]GTR 1
[*---------------------------|------------------------------*]
[--3--------3-----------6\5--|-3--------3-----------6\5------]
[--1--0--0--1--0--0--0--4\3--|-1--0--0--1--0--0--0--4\3------]
      .  .     .  .  .   sl       .  .     .  .  .   sl
                                                   
[----------------------------|-------------------------------]
[----------------------------|-------------------------------]
[*---------------------------|------------------------------*]GTR 2
[*---------------------------|------------------------------*] 
[--2-(2)---------------------|-2--2--2--2--2--2--2--2--2--2--]
[--0-(0)---------------------|-0--0--0--0--0--0--0--0--0--0--]
                               .  .  .  .  .  .  .  .  .  .


[Riff D]
[---------------------------------------]
[---------------------------------------]
[*-------------------------------------*]GTRS 1&2
[*-------------------------------------*]
[--------------------------1__2__1__2---]
[--0--0--2__3__2__3--0--0----h--p--h----]
   .  .    h  p  h   .  .             

[---------------------------------------]
[---------------------------------------]
[*-------------------------------------*]GTRS 1&2
[*-------------------------------------*]
[--------------------------5__6__5__6---]
[--0--0--2__3__2__3--0--0----h--p--h----]
   .  .    h  p  h   .  .


Play Riff D 3 times


[Riff E]
[------------------------------------------------------]
[------------------------------------------------------]
[*----------------------------------------------------*]GTRS 1&2
[*----------------------------------------------------*] 
[--------------------------------------------------3---]
[--0--0--0--0--0--0--0--0--0--0--1__4__1__0--0--0--1---]
   .  .  .  .  .  .  .  .  .  .    h  p  p   .  .

[------------------------------------------------------]
[------------------------------------------------------]
[*----------------------------------------------------*]GTRS 1&2
[*----------------------------------------------------*]
[--------------------------------5------------6--------]
[--0--0--0--0--0--0--0--0--0--0--3------0--0--4--------]
   .  .  .  .  .  .  .  .  .  .         .  .


Play Riff E 1 time


[Fill 1]
[----------]
[----------]
[*--------*]GTRS 1&2
[*--------*] 
[--2-(2)---]
[--0-(0)---]


[Next]
[-----------------------------|-----------------------------]
[-----------------------------|-----------------------------]
[*----------------------------|----------------------------*]GTR 1
[*----------------------------|----------------------------*]
[-----------------------------|---------------------8"------]
[--4"----------3"----1"-0"-1"-|-1"--3"------4"--------------]
   
[-----------------------------|-----------------------------]
[-----------------------------|-----------------------------]
[*----------------------------|----------------------------*]GTR 2
[*----------------------------|----------------------------*]
[--6--------------------------|-----------------------------]
[--4--------------------------|-----------------------------]

[-----------------------------|-----------------------------]
[-----------------------------|-----------------------------]
[*----------------------------|----------------------------*]GTR 1
[*----------------------------|----------------------------*] 
[-----------------------------|---------------------8"------]
[--4"----------3"----1"-0"-1"-|-1"--3"------4"--------------]

[-----------------------------|-----------------------------]
[-----------------------------|-----------------------------]
[*----------------------------|----------------------------*]GTR 2
[*----------------------------|----------------------------*]
[-----------------------------|-----------------------------]
[-----------------------------|---------------------x\------]
                                                     sl
[-----------------------------|-----------------------------]
[-----------------------------|-----------------------------]
[*----------------------------|----------------------------*]GTRS 1&2
[*----------------------------|----------------------------*]
[-----------------------------|--------------------8"-------]
[--4"----------3"----1"-0"-1"-|1"--3"------4"---------------]
           
[-----------------------------|-----------------------------]
[-----------------------------|-----------------------------]
[*----------------------------|----------------------------*]GTRS 1&2
[*----------------------------|----------------------------*]
[--------------------------8"-|-8"-7"-----------------------]
[--4"----------3"----1"-0"----|------------4"-3"-1"-0"------]


[Riff F]
[-----------------------------|-----------------------------]
[-----------------------------|-----------------------------]
[*----------------------------|----------------------------*]GTRS 1&2
[*----------------------------|----------------------------*]
[-----------------------------|---------------------8"------]
[--4"----------3"----1"-0"-1"-|-1"--3"------4"--------------]
   
[-----------------------------|-----------------------------]
[-----------------------------|-----------------------------]
[*----------------------------|----------------------------*]GTRS 1&2
[*----------------------------|----------------------------*] 
[-----------------------------|---------------------8"------]
[--4"----------3"----1"-0"-1"-|-1"--3"------4"--------------]

[-----------------------------|-----------------------------]
[-----------------------------|-----------------------------]
[*----------------------------|----------------------------*]GTRS 1&2
[*----------------------------|----------------------------*]
[-----------------------------|---------------------8"------]
[--4"----------3"----1"-0"-1"-|-1"--3"------4"--------------]
          
[-----------------------------|-----------------------------]
[-----------------------------|-----------------------------]
[*----------------------------|----------------------------*]GTRS 1&2
[*----------------------------|----------------------------*]
[--------------------------8"-|-8"-7"-----------------------]
[--4"----------3"----1"-0"----|------------4"-3"-1"-0"------]


Play Riff F 1 time


[Riff G]
[---------|--------|--------|------------]
[---------|--------|--------|------------]
[*--------|--------|--------|-----------*]GTRS 1&2
[*--------|--------|--------|-----------*]
[--2------|-3------|-9------|-8--5-------]
[--0------|-1------|-7------|-6--3-------]


[Riff G.1]
[---------|--------|--------|------------]
[---------|--------|--------|------------]
[*--------|--------|--------|-----------*]GTRS 1&2
[*--------|--------|--------|-----------*]
[--2-2----|-3-3----|-9-9----|-8--5-------]
[--0-0----|-1-1----|-7-7----|-6--3-------]


Play Riff G 1 time


[Riff G.2]
[-----------------------------|-----------------------------]
[-----------------------------|-----------------------------]
[*----------------------------|----------------------------*]GTRS 1&2
[*----------------------------|----------------------------*] 
[-----------------------------|-----------------------------]
[--0"----------1"----------7"-|-7"----------6"------3"------]


Play Riff F   2 times
Play Riff G   1 time
Play Riff G.1 1 time
Play Riff G   1 time
Play Riff G.2 5 times
Play Riff G.1 4 times (over solo)


[Final]
[-----------------|-----------------]
[-----------------|-----------------]
[*----------------|----------------*]GTRS 1&2
[*----------------|----------------*]
[--3-(3)----------|-2--3--6--5--3---]
[--1-(1)----------|-0--1--4--3--1---]
                              [End]





Comments


Popular Napalm Death tabs & chords
Inner Incineration Bass Tabs
You Suffer Bass Tabs
Constitutional Hell Tabs
Hung Tabs
If Symptoms Persist Tabs
Incinerator Tabs
Losers Intro Tabs
Placate, Sedate, Eradicate Tabs
Scum 1 Tabs
The Lifeless Alarm Tabs


Song lyrics



↑ Back to top | Tablatures and chords are parodies/interpretations of the original songs. You may use it for private study, scholarship, research or language learning purposes only
© 2014 AZChords.com Contact us | Privacy policy | DMCA | Add/correct tabs | Request tabs | Top 50 tabs