» » »

Napalm Death, Breed To Breathe Tabs (ver.1)

Artists:  A B C D E F G H I J K L M N O P Q R S T U V W X Y Z # 

Breed To Breathe Tabs (ver.1)

Napalm Death Tabs
Rating:
1/5 (1 vote)
Breed To Breathe lessons Tabs too difficult? Try these video lessons and learn fast
                All corrections are welcome.

  " - tremolo
 / - slide down
  - slide up
 . - palm mute
 ~ - long sound
 x - rest
 p - pull off
 h - hammer on
 tr - trill
 () - ghost note, sustained note
 <> - let ring

===================================================

Intro
|----------------------------------------------------------------|
|----------------------------------------------------------------|
|----------------------------------------------------------------|
|-6-7------------6-7------------6-7--------------7-----999999999-|gtr
|-4-5------------4-5------------4-5------------6-5-----777777777-|
|----------------------------------------------4-----------------|
|
|----------------------------------------------------------------|
|----------------------------------------------------------------|
|----------------------------------------------------------------|bass
|-----00-000-000-----00-000-000-----00-000-000-----000-----------|



Riff 1
|---------------------------------------------------------------------|
|---------------------------------------------------------------------|
|-------------------------------------------------------------99-9999-|
|-6-7------99-9999-6-7------99-9999-6-7------99-9999---7------77-7777-|
|-4-5------77-7777-4-5------77-7777-4-5------77-7777-6-5------00-0000-|
|-----00-0-------------00-0-------------00-0---------4---00-0---------|


Fill 1
|----|
|-0"-|
|-4"-| Play it several times
|----| with riff 1
|----|
|----|


Riff 2
|--------------------------------------|
|--------------------------------------|
|--------------------------------------|
|--------------------------------7---6-|
|-7--------7--------7--------5---5---4-|
|---6-00-0---6-00-0---6-00-0-3-0---0---|
      .. .     .. .     ..


Riff 3
|---------------------------------------------|
|-----------------0"--------------------0"----|
|-----------------4"--------------------4"----|
|-9---------------------9---------------------|
|-7-8-3-5-3-5-2-2-------7-8-3-5-3-5-7-8-------|
|---6-1-3-1-3-0-0---------6-1-3-1-3-5-6-------|

|---------------------------------------------------------|
|-----------------0"--------------------0"----------------|
|-----------------4"--------------------4"----------------|
|-9---------------------9---------------------9-----------|
|-7-8-3-5-3-5-2-2-------7-8-3-5-3-5-7-8-------7-8-3-5-3-5-|
|---6-1-3-1-3-0-0---------6-1-3-1-3-5-6---------6-1-3-1-3-|


Riff 4
|---------------------------------------------------|
|---------------------------------------------------|
|---------------------------------------------------|
|--------5-----9------------------------9-----------|
|-2-2--2-3-2-2-7-8-3-5-3-5-8-8--8-5-8-8-7-8-3-5-3-5-|
|-0-0--0---0-0---6-1-3-1-3-6-6--6-3-6-6---6-1-3-1-3-|

|---------------------------------------|
|---------------------------------------|
|---------------------------------------|
|--------5-----9------------------------|
|-2-2--2-3-2-2-7-8-3-5-3-5-8-8--8-5-8-8-|
|-0-0--0---0-0---6-1-3-1-3-6-6--6-3-6-6-|


Riff 5
|--------------------------------------------|
|--------------------------------------------|
|--------------------------------------------|
|-99------99------77------77-----------------|
|-77------77------55------55-----------------|
|-00-00-0-00-00-0-00-00-0-00-7p6p5p0-7p6p5p0-|
     .. .    .. .    .. .


Ending riff
|-----|
|-----|
|-----|
|-9---|
|-7-2-|
|---0-|
            
Submit corrections

comments powered by Disqus
↑ Back to top | Napalm Death Tabs for Breed To Breathe. Lyrics for acoustic guitar and electric guitar. Tablatures and chords are parodies/interpretations of the original songs. You may use it for private study, scholarship, research or language learning purposes only