array
(
    
'bedtimestory' => 'bedtimestory'
    'napalmdeath' 
=> 'napalmdeath'
)
Bedtime Story Tabs (ver. 1) by Napalm Death @ AZ CHORDS.COM
» » »

Bedtime Story Tabs (ver.1)

Artists:  A B C D E F G H I J K L M N O P Q R S T U V W X Y Z # 

Bedtime Story Tabs (ver.1)

Napalm Death
Rating:
0/5 (0 votes)

Hard to play? Try these video lessons and learn fast.
                -------------------------------------------------------------------------------
-------------------------------------------------------------------------------

Tuning: Drop D

Original Artist: The Dayglo Abortions

| #  Harmonic
| x  Mute note
| *  Palm Mute (* is below the frets)
| /  Slide Up
===============================================================================

e|--------------------------------------------------------------------------------|
B|--------------------------------------------------------------------------------|
G|--------------------------------------------------------------------------------|
D|----------------------------------------------------------------------2----4----|
A|----------------------7-6---------------7-1-----------------------------2----4--|
E|-4------------------------------------------------------------------------------|

e|--------------------------------------------------------------------------------|
B|--------------------------------------------------------------------------------|
G|--------------------------------------------------------------------------------|
D|----------------------------------------------------------------------2----4----|
A|----------------------7-6---------------7-1-----------------------------2----4--|
E|-4------------------------------------------------------------------------------|

e|--------------------------------------------------------------------------------|
B|--------------------------------------------------------------------------------|
G|--------------------------------------------------------------------------------|
D|----------------------9-8-8-8-8-8-8-8-8-9-3--3-3-3--3-3-3--3-3-3--3-3-2----4----|
A|-6--6-6-6--6-6-6--6-6-7-6-6-6-6-6-6-6-6-7-1--1-1-1--1-1-1--1-1-1--1-1---2----4--|
E|-4--4-4-4--4-4-4--4-4-----------------------------------------------------------|
      * *    * *    * *     * * * * * * *      * *    * *    * *    * *

e|--------------------------------------------------------------------------------|
B|--------------------------------------------------------------------------------|
G|----------------------------------------------------------------------4----6----|
D|----------------------9-8-8-8-8-8-8-8-8-9-3---------------------------2-4--4-6--|
A|-6--6-6-6--6-6-6--6-6-7-6-6-6-6-6-6-6-6-7-1-----------------------------2----4--|
E|-4--4-4-4--4-4-4--4-4-----------------------------------------------------------|
      * *    * *    * *     * * * * * * *

e|------------------------------------------------------------------|
B|------------------------------------------------------------------|
G|--------------------------------------------------------4----6----|
D|---------------9--8-9#-8--8-8-8-9--3----3-3-3-3-3-3-3-3-2-4--4-6--|
A|-6----6--6-6-6-7--6----6--6-6-6-7--1-4#-1-1-1-1-1-1-1-1---2----4--|
E|-4-4#-4--4-4-4----------------------------------------------------| x4

e|-------------------|
B|-------------------|
G|-------------------|
D|---------------9---|
A|-6-------------7-9-|
E|-4---------------7-|

e|------------------|
B|------------------|
G|------------------|
D|--------------9---|
A|-6-6-6-6--6-6-7-9-|
E|-4-4-4-4--4-4---7-| x8

e|--------------------------------------------------------|
B|--------------------------------------------------------|
G|--------------4----------------6------------------------|
D|--------------2-4-3-4-4--4-3-4-4-6--------------6-4-3-3-|
A|-6-6-6-6--6-6---2-1-2-2--2-1-2---4-6--6-6--6--6-4-2-1-1-|
E|-4-4-4-4--4-4----------------------4--4-4--4--4---------| x2

e|------------------|
B|------------------|
G|------------------|
D|--------------9---|
A|-6-6-6-6--6-6-7-9-|
E|-4-4-4-4--4-4---7-| x6

e|--------------------------------------------------------|
B|--------------------------------------------------------|
G|--------------4----------------6------------------------|
D|--------------2-4-3-4-4--4-3-4-4-6--------------6-4-3-3-|
A|-6-6-6-6--6-6---2-1-2-2--2-1-2---4-6--6-6--6--6-4-2-1-1-|
E|-4-4-4-4--4-4----------------------4--4-4--4--4---------| x2


e|------------------|
B|------------------|
G|------------------|
D|--------------9---|
A|-6-6-6-6--6-6-7-9-|
E|-4-4-4-4--4-4---7-| x2

e|----------------|
B|----------------|
G|----------------|
D|----------------|
A|-7------4--6x---|
E|-5------2--4x---|

e|----------------|
B|----------------|
G|----------------|
D|----------------|
A|-7------4--6/----|
E|-5------2--4/---|

e|----------------|
B|----------------|
G|----------------|
D|----------------|
A|-7------4--6x---|
E|-5------2--4x---|

e|-------------|
B|-------------|
G|-------------|
D|-------------|
A|-7------4--6-|
E|-5------2--4-|

e|------------------------------------------------------------------|
B|------------------------------------------------------------------|
G|--------------------------------------------------------4----6----|
D|---------------9--8-9#-8--8-8-8-9--3----3-3-3-3-3-3-3-3-2-4--4-6--|
A|-6----6--6-6-6-7--6----6--6-6-6-7--1-4#-1-1-1-1-1-1-1-1---2----4--|
E|-4-4#-4--4-4-4----------------------------------------------------|

e|-------------------------------------------------------------------|
B|-------------------------------------------------------------------|
G|--------------------------------------------------------4----6-----|
D|---------------9--8-9#-8--8-8-8-9--3----3-3-3-3-3-3-3-3-2-4--4-6---|
A|-6----6--6-6-6-7--6----6--6-6-6-7--1-4#-1-1-1-1-1-1-1-1---2----4-6-|
E|-4-4#-4--4-4-4---------------------------------------------------4-|
            
Hard to play? Try these video lessons and learn fast. | Correct




comments powered by Disqus
↑ Back to top | Tablatures and chords are parodies/interpretations of the original songs. You may use it for private study, scholarship, research or language learning purposes only