>
 >
Back From The Dead

Back From The Dead Guitar Tabs

Napalm Death - Back From The Dead chords, tabs, tablatures, lyrics

Guitar lessons | Add/correct | Request | Top 50 tabs Artists:  A B C D E F G H I J K L M N O P Q R S T U V W X Y Z 0-9

Back From The Dead Guitar Tabs – Napalm Death

CD, Sheet music, Poster

Do you like Back From The Dead? Share with your friends now
Bass TabsTabs
                       Back From The Dead (Death cover)                         


                                                                    Napalm Death
Guitar 1



      Q    Q    Q    Q     4x  H             E.  S S S S S E.  S S S S S  
E||------------------------||-----------||-------------------------------|
B||------------------------||-----------||-------------------------------|
G||*----------------------*||-----------||*------------------------------|
D||*--5----4----3----7----*||-----------||*--2---3-2-3-2-3-2---3-2-3-2-3-|
A||---5----4----3----7-----||-----------||---2---3-2-3-2-3-2---3-2-3-2-3-|
E||---3----2----1----5-----||-----------||---0---1-0-1-0-1-0---1-0-1-0-1-|


  E.  S S S S S E.  S S S S S      E.  S S S S S E.  S S S S S  
-------------------------------||------------------------------|
-------------------------------||------------------------------|
------------------------------*||------------------------------|
--5---6-5-6-5-6-5---6-5-6-5-6-*||--5---6-5-6-5-6-5---6-5-6-5-6-|
--5---6-5-6-5-6-5---6-5-6-5-6--||--5---6-5-6-5-6-5---6-5-6-5-6-|
--3---4-3-4-3-4-3---4-3-4-3-4--||--3---4-3-4-3-4-3---4-3-4-3-4-|


    E.  S S S S S E.  S S S S S    E.  S S S S S E.  S S S S S    
|-------------------------------|-------------------------------||
|-------------------------------|-------------------------------||
|*------------------------------|------------------------------*||
|*--2---3-2-3-2-3-2---3-2-3-2-3-|--5---6-5-6-5-6-5---6-5-6-5-6-*||
|---2---3-2-3-2-3-2---3-2-3-2-3-|--5---6-5-6-5-6-5---6-5-6-5-6--||
|---0---1-0-1-0-1-0---1-0-1-0-1-|--3---4-3-4-3-4-3---4-3-4-3-4--||


   H        Q    Q     3x  W                   W                 
-----------------------||-------------------|-------------------|
-----------------------||-------------------|-------------------|
*---------------------*||-------------------|-------------------|
*--2--------4----3----*||--2----------------|--L----------------|
---2--------4----3-----||--2----------------|--L----------------|
---0--------2----1-----||--0----------------|--L----------------|


    S S S S Q    S S S S E  E     S S S S Q    S S S S E  E     
|------------------------------|------------------------------||
|------------------------------|------------------------------||
|*-----------------------------|-----------------------------*||
|*----------3------------3--6--|----------3------------3--6--*||
|-----------3------------------|----------3-------------------||
|---0-0-0-0-1----0-0-0-0-------|--0-0-0-0-1----0-0-0-0--------||


  S S S S Q    S S S S E  E       S S S S Q    S S S S E  E   
-----------------------------||------------------------------|
-----------------------------||------------------------------|
-----------------------------||*-----------------------------|
----------3------------3--6--||*----------3------------3--6--|
----------3------------------||-----------3------------------|
--0-0-0-0-1----0-0-0-0-------||---0-0-0-0-1----0-0-0-0-------|


  S S S S Q    S S S S E  E       S S S S Q    S S S S E  E   
------------------------------||-----------------------------|
------------------------------||-----------------------------|
-----------------------------*||-----------------------------|
----------3------------3--6--*||----------3------------3--6--|
----------3-------------------||----------3------------------|
--0-0-0-0-1----0-0-0-0--------||--0-0-0-0-1----0-0-0-0-------|


    S S S S Q    S S S S E  E     S S S S Q    S S S S E  E     
|------------------------------|------------------------------||
|------------------------------|------------------------------||
|*-----------------------------|-----------------------------*||
|*----------3------------3--6--|----------3------------3--6--*||
|-----------3------------------|----------3-------------------||
|---0-0-0-0-1----0-0-0-0-------|--0-0-0-0-1----0-0-0-0--------||


  S S S S Q    S S S S E  E       E.  S S S S S E.  S S S S S  
-----------------------------||-------------------------------|
-----------------------------||-------------------------------|
-----------------------------||*------------------------------|
----------3------------3--6--||*--2---3-2-3-2-3-2---3-2-3-2-3-|
----------3------------------||---2---3-2-3-2-3-2---3-2-3-2-3-|
--0-0-0-0-1----0-0-0-0-------||---0---1-0-1-0-1-0---1-0-1-0-1-|


  E.  S S S S S E.  S S S S S      E.  S S S S S E.  S S S S S  
-------------------------------||------------------------------|
-------------------------------||------------------------------|
------------------------------*||------------------------------|
--5---6-5-6-5-6-5---6-5-6-5-6-*||--5---6-5-6-5-6-5---6-5-6-5-6-|
--5---6-5-6-5-6-5---6-5-6-5-6--||--5---6-5-6-5-6-5---6-5-6-5-6-|
--3---4-3-4-3-4-3---4-3-4-3-4--||--3---4-3-4-3-4-3---4-3-4-3-4-|


    E.  S S S S S E.  S S S S S    E.  S S S S S E.  S S S S S    
|-------------------------------|-------------------------------||
|-------------------------------|-------------------------------||
|*------------------------------|------------------------------*||
|*--2---3-2-3-2-3-2---3-2-3-2-3-|--5---6-5-6-5-6-5---6-5-6-5-6-*||
|---2---3-2-3-2-3-2---3-2-3-2-3-|--5---6-5-6-5-6-5---6-5-6-5-6--||
|---0---1-0-1-0-1-0---1-0-1-0-1-|--3---4-3-4-3-4-3---4-3-4-3-4--||


   H        Q    Q     3x  W                   W                 
-----------------------||-------------------|-------------------|
-----------------------||-------------------|-------------------|
*---------------------*||-------------------|-------------------|
*--2--------4----3----*||--2----------------|--L----------------|
---2--------4----3-----||--2----------------|--L----------------|
---0--------2----1-----||--0----------------|--L----------------|


    S S S S Q    S S S S E  E     S S S S Q    S S S S E  E     
|------------------------------|------------------------------||
|------------------------------|------------------------------||
|*-----------------------------|-----------------------------*||
|*----------3------------3--6--|----------3------------3--6--*||
|-----------3------------------|----------3-------------------||
|---0-0-0-0-1----0-0-0-0-------|--0-0-0-0-1----0-0-0-0--------||


  S S S S Q    S S S S E  E       S S S S Q    S S S S E  E   
-----------------------------||------------------------------|
-----------------------------||------------------------------|
-----------------------------||*-----------------------------|
----------3------------3--6--||*----------3------------3--6--|
----------3------------------||-----------3------------------|
--0-0-0-0-1----0-0-0-0-------||---0-0-0-0-1----0-0-0-0-------|


  S S S S Q    S S S S E  E       S S S S Q    S S S S E  E   
------------------------------||-----------------------------|
------------------------------||-----------------------------|
-----------------------------*||-----------------------------|
----------3------------3--6--*||----------3------------3--6--|
----------3-------------------||----------3------------------|
--0-0-0-0-1----0-0-0-0--------||--0-0-0-0-1----0-0-0-0-------|


    S S S S Q    S S S S E  E     S S S S Q    S S S S E  E     
|------------------------------|------------------------------||
|------------------------------|------------------------------||
|*-----------------------------|-----------------------------*||
|*----------3------------3--6--|----------3------------3--6--*||
|-----------3------------------|----------3-------------------||
|---0-0-0-0-1----0-0-0-0-------|--0-0-0-0-1----0-0-0-0--------||


  S S S S Q    S S S S E  E   
-----------------------------|
-----------------------------|
-----------------------------|
----------3------------3--6--|
----------3------------------|
--0-0-0-0-1----0-0-0-0-------|


  T T T T T T T T T T T T T T T T T T T T T T T T T T T T T T T T  
------------------------------------------------------------------|
------------------------------------------------------------------|
------------------------------------------------------------------|
------------------------------------------------------------------|
------------------------------------------------------------------|
--3-3-3-3-3-3-3-3-4-4-3-3-3-3-3-3-2-2-2-2-2-2-2-2-0-0-0-0-0-0-0-0-|


  T T T T T T T T T T T T T T T T T T T T T T T T T T T T T T T T  
------------------------------------------------------------------|
------------------------------------------------------------------|
------------------------------------------------------------------|
------------------------------------------------------------------|
------------------------------------------------------------------|
--3-3-3-3-3-3-3-3-4-4-3-3-3-3-3-3-2-2-2-2-2-2-2-2-0-0-0-0-0-0-0-0-|


    T T T T T T T T T T T T T T T T T T T T T T T T T T T T T T T T  4x
|--------------------------------------------------------------------||
|--------------------------------------------------------------------||
|*------------------------------------------------------------------*||
|*------------------------------------------------------------------*||
|--------------------------------------------------------------------||
|---3-3-3-3-3-3-3-3-4-4-3-3-3-3-3-3-2-2-2-2-2-2-2-2-0-0-0-0-0-0-0-0--||


   H        Q    Q     3x  H        Q    Q       Q    H.            
-----------------------||---------------------|--------------------|
-----------------------||---------------------|--------------------|
*---------------------*||---------------------|--------------------|
*--2--------4----3----*||--2--------4----3----|--2-----------------|
---2--------4----3-----||--2--------4----3----|--2-----------------|
---0--------2----1-----||--0--------2----1----|--0-----------------|


  S S S E  S E  S S S E  S S S   
--0-0------0----0---0------0---||
--0---0---------0-0-0----0---0-||
--0---0----0----0-0-0----0---0-||
--0---0----0----0---0----0-0-0-||
--0---0----0----0---0----0---0-||
--0-0------0----0---0----0---0-||




Duration Legend
---------------
W - whole
H - half
Q - quarter
E - 8th
S - 16th
T - 32nd
X - 64th
. - note dotted
|-n-|  - n-tuplets


Tablature Legend
----------------
L - tied note
x - dead note
g - grace note
(n) - ghost note
> - accentuded note
NH - natural harmonic
AH - artificial harmonic
TH - tapped harmonic
SH - semi harmonic
PH - pitch harmonic
h - hammer on
p - pull off
b - bend
br - bendRelease
pb - preBend
pbr - preBendRelease
brb - bendReleaseBend
\n/ - tremolo bar dip
\n - tremolo bar dive
-/n - tremolo bar Release up
/n\ - tremolo bar inverted dip
/n - tremolo bar return
-\n - tremolo bar Release down
S - shift slide
s - legato slide
/ -  slide into from below or out of upwards
\ -  slide into from above or out of downwards
~ - vibrato
W - wide vibrato
tr - trill
TP - tremolo picking
T - tapping
S - slap
P - pop
< - fade in
^ - brush up
v - brush down





Comments


Popular Napalm Death tabs & chords
Back From The Dead Bass Tabs
Cursed To Crawl Bass Tabs
On The Brink Of Extinction Bass Tabs
Inner Incineration Tabs
Instinct Of Survival 1 Tabs
Politicians Tabs
Prison Without Walls Tabs
Scum Tabs
Taste The Poison Tabs
Volume Of Neglect Tabs


Song lyrics



↑ Back to top | Tablatures and chords are parodies/interpretations of the original songs. You may use it for private study, scholarship, research or language learning purposes only
© 2014 AZChords.com Contact us | Privacy policy | DMCA | Add/correct tabs | Request tabs | Top 50 tabs