» » »

Aryanisms Tabs (ver.1)

Artists:  A B C D E F G H I J K L M N O P Q R S T U V W X Y Z # 

Aryanisms Tabs (ver.1)

Napalm Death
Rating:
0/5 (0 votes)

Hard to play? Try these video lessons and learn fast.
                Utopia Banished
Tune down a step and a half

Intro
---------------------------------------------------------------------
---------------------------------------------------------------------
---------------------------------------------------------------------
666------------------------------------------------------------------
444-4^5-8-7----------------------------------------------------------
--------6-5----------------------------------------------------------

Put it on yourself to be a role model...
---------- ------------ ------------- -------- -------- --------------
---------- ------------ ------------- -------- -------- --------------
---------- ------------ ------------- -------- -------- --------------
---------- --------3-2- -23-6-5------ -------- -----66- -----6--------
3-2-2-5-6- -2^3-------- --------6-5^6 -333-66- -333-44- -333-4-6------
1-0-0-3\4- -----43----- ------------- -111-44- -111---- -111---4------

Keeping each to their own where social bonding is taboo
---------------------------------------------------------------------
---------------------------------------------------------------------
---------------------------------------------------------------------
---------------------------------------------------------------------
----------------------------3-1--------------------------------------
0-2-1-2-0-2-1-2-0-2-1-2-0-2------------------------------------------

Challenge the sordid claims to purify
---------------------------------------------------------------------
---------------------------------------------------------------------
---------------------------------------------------------------------
-----------6---------3-2---2-----------------------------------------
43-65-43-----43-65-------3---3-1-------------------------------------
21-43-21-3---21-43-1-------------------------------------------------

Your distinction threatened?Absurd!
------------------------------------- ------- -------------------------
------------------------------------- ------- -------------------------
------------------------------------- ------- -------------------------
-------3-2---2-----------3-2---2----- ------- -------33----------------
333333-----3---3-1-66666-----3---3-1- -66-55- -66-55-11-44-------------
111111-------------44444------------- -44-33- -44-33----22-------------

Get your kicks through persecution
------- --------- -----------------------------------------------------
------- --------- -----------------------------------------------------
------- --------- -----------------------------------------------------
------- --------- -3-4-6-4---------------------------------------------
3-2---- -3-5-6-5- -1-2-4-2---------------------------------------------
1-0-00- -1-3-4-3- -----------------------------------------------------

Used as scapegoats for your exterior doubts
-------- ----------- --------------------------------------------------
-------- ----------- --------------------------------------------------
-------- ----------- --------------------------------------------------
-------- -4-3-3----- -------3------------------------------------------
-------- -2-1-1-2-3- -2-1----------------------------------------------
0-3-2-3- -------0-1- -----1--------------------------------------------

Harmony can only flourish with mutual regard
--------------- ----- ----- --------------------------------------------
--------------- ----- ----- --------------------------------------------
--------------- ----- ----- --------------------------------------------
--------------- ----- ---6- --------------------------------------------
-----2-------1- -3-6- -3-4- -2-5-3--------------------------------------
00-23--00-23--- -1-4- -1--- -0-3-1--------------------------------------

Ending
---------------------------------------------------------------------
---------------------------------------------------------------------
---------------------------------------------------------------------
---------------------------------------------------------------------
-2--------------------------------------------------------------------
-0--------------------------------------------------------------------
            
Hard to play? Try these video lessons and learn fast. | Correct




comments powered by Disqus
↑ Back to top | Tablatures and chords are parodies/interpretations of the original songs. You may use it for private study, scholarship, research or language learning purposes only