>
 >
All Hail The Grey Dawn

All Hail The Grey Dawn Guitar Tabs

Napalm Death - All Hail The Grey Dawn chords, tabs, tablatures, lyrics

Guitar lessons | Add/correct | Request | Top 50 tabs Artists:  A B C D E F G H I J K L M N O P Q R S T U V W X Y Z 0-9

All Hail The Grey Dawn Guitar Tabs – Napalm Death

CD, Sheet music, Poster

Do you like All Hail The Grey Dawn? Share with your friends now
Tabs
-------------------------------------------------------------------------------
-------------------------------------------------------------------------------

Tuning: Drop D

| PM Palm Mute
| /  slide up
| \  slide down

===============================================================================

e|-----------------------------------------------------------------|
B|-----------------------------------------------------------------|
G|--------------6-------------------------------6------------------|
D|-5------------4--5------------0--5------------4--5------------7--|
A|-3---------------3------------0--3---------------3------------5--|
E|------2-1-0-0---------2-1-0-0---------2-1-0-0---------2-1-0-0----|

e|-------------------------------------------------------|
B|-------------------------------------------------------|
G|-------------------------------------------------------|
D|-----------444----------444----------444---------------|
A|-333333-------333333-------333333-------333333----555--|
E|-------2200---------2200---------2200---------2222-----| x2

e|-------------------------------------------------------|
B|-------------------------------------------------------|
G|-----22-----22-----22-----3----------------------------|
D|-------------------------------55-----55-----55-----6--|
A|-1111---1111---1111---1111-----------------------------|
E|---------------------------4444---4444---4444---4444---|

e|---------------------------------------------------------|
B|---------------------------------------------------------|
G|-----2------5------2------5------------------------------|
D|---------------------------------5-------------5---------|
A|-1111---1111---1111---1111--------------6-------------6--|
E|-----------------------------4444---4444---4444---4444---|

e|-------------------------------------------------------|
B|-------------------------------------------------------|
G|-------------------------------------------------------|
D|-----------444----------444----------444---------------|
A|-333333-------333333-------333333-------333333----555--|
E|-------2200---------2200---------2200---------2222-----| x2

e|-------------------------------------------------------|
B|-------------------------------------------------------|
G|-----22-----22-----22-----3----------------------------|
D|-------------------------------55-----55-----55-----6--|
A|-1111---1111---1111---1111-----------------------------|
E|---------------------------4444---4444---4444---4444---|

e|---------------------------------------------------------|
B|---------------------------------------------------------|
G|-----2------5------2------5------------------------------|
D|---------------------------------5-------------5---------|
A|-1111---1111---1111---1111--------------6-------------6--|
E|-----------------------------4444---4444---4444---4444---|

e|-----------------------------------------------------------------|
B|-----------------------------------------------------------------|
G|--------------6-------------------------------6------------------|
D|-5------------4--5------------0--5------------4--5------------7--|
A|-3---------------3------------0--3---------------3------------5--|
E|------2-1-0-0---------2-1-0-0---------2-1-0-0---------2-1-0-0----| x2

e|-----------------------------------------------------|
B|-----------------------------------------------------|
G|-----------------------------------------------------|
D|-5-------5-7--5-------5-8------------4------------4--|
A|-3-3-3-3-3-5--3-3-3-3-3-6--6-------6-2--6-------6-2--|
E|---------------------------4-4-4-4-4----4-4-4-4-4----|

e|---------------------------------------------------|
B|---------------------------------------------------|
G|------------------------------------6-----------6--|
D|-5-------5-7--5-------5-8-----------4-----------4--|
A|-3-3-3-3-3-5--3-3-3-3-3-6--6-------6---6-------6---|
E|---------------------------4-4-4-4-4---4-4-4-4-4---|

e|-----------------------------------------------------|
B|-----------------------------------------------------|
G|-----------------------------------------------------|
D|-5-------5-7--5-------5-8------------4------------4--|
A|-3-3-3-3-3-5--3-3-3-3-3-6--6-------6-2--6-------6-2--|
E|---------------------------4-4-4-4-4----4-4-4-4-4----|

e|---------------------------------------------------|
B|---------------------------------------------------|
G|------------------------------------6-----------6--|
D|-5-------5-7--5-------5-8-----------4-----------4--|
A|-3-3-3-3-3-5--3-3-3-3-3-6--6-------6---6-------6---|
E|---------------------------4-4-4-4-4---4-4-4-4-4---|

e|------------------------------------------------------------------------------|
B|------------------------------------------------------------------------------|
G|------------------------------------------------------------------------------|
D|------------------------------------------------------------------------------|
A|---------3-3-3-3---------------------------------------5-5-5-5----------------|
E|-2-2-2-2---------5-5-5-5-5-5-5-5-5-5-5-5-5-5-5-2-2-2-2---------6-6-6-6-6-6-6--|

e|------------------------------------------------------------------------------|
B|------------------------------------------------------------------------------|
G|------------------------------------------------------------------------------|
D|-------------------------------------------------------5-5-5-5----------------|
A|---------3-3-3-3-----------------------------------------------6-6-6-6-6-6-6--|
E|-2-2-2-2---------5-5-5-5-5-5-5-5-5-5-5-5-5-5-5-2-2-2-2------------------------|

e|------------------------------------------------------------------------------|
B|------------------------------------------------------------------------------|
G|------------------------------------------------------------------------------|
D|------------------------------------------------------------------------------|
A|---------3-3-3-3---------------------------------------5-5-5-5----------------|
E|-2-2-2-2---------5-5-5-5-5-5-5-5-5-5-5-5-5-5-5-2-2-2-2---------6-6-6-6-6-6-6--|

e|------------------------------------------------------------------------------|
B|------------------------------------------------------------------------------|
G|------------------------------------------------------------------------------|
D|-------------------------------------------------------5-5-5-5----------------|
A|---------3-3-3-3-----------------------------------------------6-6-6-6-6-6-6--|
E|-2-2-2-2---------5-5-5-5-5-5-5-5-5-5-5-5-5-5-5-2-2-2-2------------------------|

e|-----------------------------------------------------|
B|-----------------------------------------------------|
G|-----------------------------------------------------|
D|-5-------5-7--5-------5-8------------4------------4--|
A|-3-3-3-3-3-5--3-3-3-3-3-6--6-------6-2--6-------6-2--|
E|---------------------------4-4-4-4-4----4-4-4-4-4----|

e|---------------------------------------------------|
B|---------------------------------------------------|
G|------------------------------------6-----------6--|
D|-5-------5-7--5-------5-8-----------4-----------4--|
A|-3-3-3-3-3-5--3-3-3-3-3-6--6-------6---6-------6---|
E|---------------------------4-4-4-4-4---4-4-4-4-4---|

e|-----------------------------------------------------|
B|-----------------------------------------------------|
G|-----------------------------------------------------|
D|-5-------5-7--5-------5-8------------4------------4--|
A|-3-3-3-3-3-5--3-3-3-3-3-6--6-------6-2--6-------6-2--|
E|---------------------------4-4-4-4-4----4-4-4-4-4----|

e|---------------------------------------------------|
B|---------------------------------------------------|
G|------------------------------------6-----------6--|
D|-5-------5-7--5-------5-8-----------4-----------4--|
A|-3-3-3-3-3-5--3-3-3-3-3-6--6-------6---6-------6---|
E|---------------------------4-4-4-4-4---4-4-4-4-4---|

e|------------------------------------------------------------------------------|
B|------------------------------------------------------------------------------|
G|------------------------------------------------------------------------------|
D|------------------------------------------------------------------------------|
A|---------3-3-3-3---------------------------------------5-5-5-5----------------|
E|-2-2-2-2---------5-5-5-5-5-5-5-5-5-5-5-5-5-5-5-2-2-2-2---------6-6-6-6-6-6-6--|

e|------------------------------------------------------------------------------|
B|------------------------------------------------------------------------------|
G|------------------------------------------------------------------------------|
D|-------------------------------------------------------5-5-5-5----------------|
A|---------3-3-3-3-----------------------------------------------6-6-6-6-6-6-6--|
E|-2-2-2-2---------5-5-5-5-5-5-5-5-5-5-5-5-5-5-5-2-2-2-2------------------------|

e|------------------------------------------------------------------------------|
B|------------------------------------------------------------------------------|
G|------------------------------------------------------------------------------|
D|------------------------------------------------------------------------------|
A|---------3-3-3-3---------------------------------------5-5-5-5----------------|
E|-2-2-2-2---------5-5-5-5-5-5-5-5-5-5-5-5-5-5-5-2-2-2-2---------6-6-6-6-6-6-6--|

e|------------------------------------------------------------------------------|
B|------------------------------------------------------------------------------|
G|------------------------------------------------------------------------------|
D|-------------------------------------------------------5-5-5-5----------------|
A|---------3-3-3-3-----------------------------------------------6-6-6-6-6-6-6--|
E|-2-2-2-2---------5-5-5-5-5-5-5-5-5-5-5-5-5-5-5-2-2-2-2------------------------|

e|---------------------------------------------|
B|---------------------------------------------|
G|--------|-----PM-----|-----------------------|
D|-9/10\9---------------9/10\9-----------------|
A|-7/8 \7-7-7-7-7-7-7-7-7/8 \7-7/8\7--5--4--8--|
E|--------0-0-0-0-0-0-0--------5/6\5--3--2--6--|
Play these two parts 5x. Take notice of the the speed difference in the end of the 
part, it's faster.
e|----------------------------------------|
B|----------------------------------------|
G|--------|----PM----|--------------------|
D|-9/10\9-------------9/10\9--------------|
A|-7/8 \7-7-7-7-7-7-7-7/8 \7-7/8\7-4-5-8--|
E|--------0-0-0-0-0-0--------5/6\5-2-3-6--|

e|--------------------------------------------------------------------------------------|
B|--------------------------------------------------------------------------------------|
G|--------------------------------------------------------------------------------------|
D|------------------------------------------------------------------5555----------------|
A|-----3333--------------------5555--------------------3333-------------666666666666666-|
E|-2222----555555555555555-2222----666666666666666-2222----5555-2222--------------------|

e|---------------------------------------------|
B|---------------------------------------------|
G|--------|-----PM-----|-----------------------|
D|-9/10\9---------------9/10\9-----------------|
A|-7/8 \7-7-7-7-7-7-7-7-7/8 \7-7/8\7--5--4--8--|
E|--------0-0-0-0-0-0-0--------5/6\5--3--2--6--|
Same as before, play these parts 5 times. The end of the second is faster.
e|----------------------------------------|
B|----------------------------------------|
G|--------|----PM----|--------------------|
D|-9/10\9-------------9/10\9--------------|
A|-7/8 \7-7-7-7-7-7-7-7/8 \7-7/8\7-4-5-8--|
E|--------0-0-0-0-0-0--------5/6\5-2-3-6--|

e|--------------------------------------------------------------------------------------|
B|--------------------------------------------------------------------------------------|
G|--------------------------------------------------------------------------------------|
D|------------------------------------------------------------------5555----------------|
A|-----3333--------------------5555--------------------3333-------------666666666666666-|
E|-2222----555555555555555-2222----666666666666666-2222----5555-2222--------------------|

e|--------------------------------------------------------------------------------------|
B|--------------------------------------------------------------------------------------|
G|--------------------------------------------------------------------------------------|
D|------------------------------------------------------------------5555----------------|
A|-----3333--------------------5555--------------------3333-------------666666666666666-|
E|-2222----555555555555555-2222----666666666666666-2222----5555-2222--------------------|

e|-------------------|
B|-------------------|
G|-------------------|
D|-9/10\9---------\--|
A|-7/8 \7---------\--|
E|-------------------|





Comments


Popular Napalm Death tabs & chords
Back From The Dead Bass Tabs
Aryanisms Tabs
Circle Of Hipocrisy Tabs
Deceiver Tabs
Narcalectic Tabs
Necessary Evil 1 Tabs
Negative Approach Tabs
Silence Is Deafening Tabs
Success Tabs
Unchallenged Hate Tabs


Song lyrics



↑ Back to top | Tablatures and chords are parodies/interpretations of the original songs. You may use it for private study, scholarship, research or language learning purposes only
© 2014 AZChords.com Contact us | Privacy policy | DMCA | Add/correct tabs | Request tabs | Top 50 tabs