» » »

Napalm Death, Abattoir Tabs (ver.1)

Artists:  A B C D E F G H I J K L M N O P Q R S T U V W X Y Z # 

Abattoir Tabs (ver.1)

Napalm Death Tabs
 Rating:
4/5 (4 votes)
Abattoir lessons Tabs too difficult? Try these video lessons and learn fast
                Tuning 1 step down (i think)

Riff 1
|-------------------------------------------------------------------|
|-------------------------------------------------------------------|
|-------------------------------------------------------------------|
|-------------------------------------------------------------------|
|-14-14-14-14-14-14-14-14-14-14-14-14-14-14-14-14-------------------|
|-12-12-12-12-12-12-12-12-12-12-12-12-12-12-12-12-------------------|

|-------------------------------------------------------------------|
|-------------------------------------------------------------------|
|-------------------------------------------------------------------|
|-------------------------------------------------------------------|
|-12-12-12-12-12-12-12-12-12-12-12-12-12-12-12-12-------------------|
|-10-10-10-10-10-10-10-10-10-10-10-10-10-10-10-10-------------------|

Riff 2

|-------------------------------------------------------------------|
|-------------------------------------------------------------------|
|-------------------------------------------------------------------|
|-------------------------------------------------------------------|
|-5-5-5-5-4-4-4-4-3-3-3-3-3-3-3-3-----------------------------------|
|-3-3-3-3-2-2-2-2-1-1-1-1-1-1-1-1-----------------------------------|

Riff 3

|-------------------------------------------------------------------|
|-------------------------------------------------------------------|
|-------------------------------------------------------------------|
|-------------------------------------------------------------------|
|-7-7-7-7-7-7-7-7-6-6-6-6-6-6-6-6-5-5-5-5-5-5-5-5-4-4-4-4-4-4-4-4---|
|-5-5-5-5-5-5-5-5-4-4-4-4-4-4-4-4-3-3-3-3-3-3-3-3-2-2-2-2-2-2-2-2---|

Riff 4

|-------------------------------------------------------------------|
|-------------------------------------------------------------------|
|-------------------------------------------------------------------|
|-------------------------------------------------------------------|
|-2-2-2-2-2-2-2-2---------------------------------------------------|
|-0-0-0-0-0-0-0-0---------------------------------------------------|

       Can't remember order of play  
       u can find out urself, i cant be bothered :)
       myt do it l8r

END
            
Submit corrections

comments powered by Disqus
↑ Back to top | Napalm Death Tabs for Abattoir. Lyrics for acoustic guitar and electric guitar. Tablatures and chords are parodies/interpretations of the original songs. You may use it for private study, scholarship, research or language learning purposes only