» » »

Love At The Five And Dime Tabs (ver.1)

Artists:  A B C D E F G H I J K L M N O P Q R S T U V W X Y Z # 

Love At The Five And Dime Tabs (ver.1)

Nanci Griffith
Rating:
0/5 (0 votes)

Hard to play? Try these video lessons and learn fast.
                -------------------------------------------------------------------------------
 LOVE AT THE FIVE AND DIME-NANCI GRIFFITH
-------------------------------------------------------------------------------

Tuning: Open G tuning-capo 3
     Verse
D|----9-----------12----------------7--------------12----------------------|
B|-----------0-------------------------------------------------------------|
G|----0--------0--------0------0------0------0------------0-----0----------|
D|-------------------------------------------------------------------------|
G|-0-----0-----------0-----0------0------0------------0------0-------------|
D|-------------------------------------------------------------------------|
                     Rita was sixteen,--hazel eyes and---------------------|
      Verse
D|--5---------------7--------------5-------------0----------------------|
B|--5--------5-------------5-------------5-------------------0----------|
G|-----5--------5-------------5--------------5---------0-------0--------|
D|----------------------------------------------------------------------|
G|--0----0------------0--------------0-------------0-----0--------------|
D|----------------------------------------------------------------------|
                         she made the Woolworth-----shine,
       Verse
D|--12----------------------------------|
B|--------------------------------------|
G|---------0----0-----------------------|
D|--------------------------------------|
G|------0----0--------------------------|
D|--------------------------------------|

       Chorus(Rhythm guitar)
D|------0----------------------------------------0---------------|
B|------3----------------------------------------1---------------|
G|------0----------------------------------------0---------------|
D|------4----------------------------------------2---------------|
G|--0----------------------------------------0-------------------|
D|---------------------------------------------------------------|
       dance a little closer to me, dance a little closer now,
        Chorus(Rhythm guitar)
D|------0-------------------------------0-------2--2--2--2--0--0---------|
B|------3-------------------------------1-------1--1--1--1--1--1---------|
G|------0-------------------------------0-------0--0--0--0--0--0---------|
D|------4-------------------------------2-------2--2--2--2--2--2---------|
G|--0-------------------------------0-----------0--0--0--0--0--0---------|
D|-----------------------------------------------------------------------|
        dance a little closer tonight,
      Chorus

       Chorus(Rhythm guitar)
D|------0----------------------------------------0-------|
B|------3----------------------------------------1-------|
G|------0----------------------------------------0-------|
D|------4----------------------------------------2-------|
G|--0----------------------------------------0-----------|
D|-------------------------------------------------------|
      dance a little closer to me, hey it's closing time
       Chorus
D|-----------------0------2------0--------------0-----------|
B|---------3------------------------------3-----------------|
G|-----2--------------2--------------2-------------2--------|
D|--0---------0--------------0--------------0---------------|
G|----------------------------------------------------------|
D|----------------------------------------------------------|
     and love's on sale tonight at this five and dime,
       Chorus
D|--5----------5--------------5------------------------------|
B|----------------------3--------------3-------0-------------|
G|------0----------0--------------0---------------0----------|
D|-----------------------------------------------------------|
G|--0------0--------------0--------------0-------------------|
D|-----------------------------------------------------------|

This covers the entire song.All verses and choruses
are played the same.

*Note that the 12th fret note on the 1st string is actually a harmonic,
 but it's just as effective when you fret it. *
            
Hard to play? Try these video lessons and learn fast. | Correct




comments powered by Disqus
↑ Back to top | Tablatures and chords are parodies/interpretations of the original songs. You may use it for private study, scholarship, research or language learning purposes only