>
 >
Hitoiro

Hitoiro Guitar Tabs

Nana - Hitoiro chords, tabs, tablatures, lyrics

Guitar lessons | Add/correct | Request | Top 50 tabs Artists:  A B C D E F G H I J K L M N O P Q R S T U V W X Y Z 0-9

Hitoiro Guitar Tabs – Nana

CD, Sheet music, Poster

Do you like Hitoiro? Share with your friends now
Tabs
Chords Used:
C#m - 046650 
'C#m' - 91111000 [those are 11's]
B - 023330
Bmaj - 799800
A - 002220
'A' - 577600
F#m - 244xxx
E6 - 079900
G#5/D# - 066800

STANDARD TUNING

INTRO:

e|--------0-------0----------|
b|-----------------------5---|
g|-----9-------8-------6-----|
d|---9-------6-------6-------|
a|-7-------6-------4---------|
E|---------------------------|

e|--------0-------0-------4--|
b|---------------------------|
g|-----9-------8-------6-----|
d|---9-------6-------6-------|
a|-7-------6-------4---------|
E|---------------------------|

e|--------0-------0----------|
b|-----------------------5---|
g|-----9-------8-------6-----|
d|---9-------6-------6-------|
a|-7-------6-------4---------|
E|---------------------------|

e|--------0-------0-------4--|
b|---------------------------|
g|-----9-------8-------6-----|
d|---9-------6-------6-------|
a|-7-------6-------4---------|
E|---------------------------|

e|-----------------------------------|
b|-------4-------5-------4-----------|
g|-----6-------6-------6------9------|
d|---6-------6-------6--------7------|
a|-6-------4-------6----------7------|
E|-----------------------------------|

VERSE:

e|--------0-------0----------|
b|-----------------------5---|
g|-----9-------8-------6-----|
d|---9-------6-------6-------|
a|-7-------6-------4---------|
E|---------------------------|

e|--------0-------0-------4--|
b|---------------------------|
g|-----9-------8-------6-----|
d|---9-------6-------6-------|
a|-7-------6-------4---------|
E|---------------------------|

e|--------0-------0----------|
b|-----------------------5---|
g|-----9-------8-------6-----|
d|---9-------6-------6-------|
a|-7-------6-------4---------|
E|---------------------------|

e|--------0-------0-------4--|
b|---------------------------|
g|-----9-------8-------6-----|
d|---9-------6-------6-------|
a|-7-------6-------4---------|
E|---------------------------|

e|-----------------------------------|
b|-------4-------5-------4-------5---|
g|-----6-------6-------6-------6-----|
d|---6-------6-------6-------6-------|
a|-6-------4-------6-------4---------|
E|-----------------------------------|

e|-----------------------------------|
b|-------4-------5-------4-----------|
g|-----6-------6-------6------9------|
d|---6-------6-------6--------7------|
a|-6-------4-------6----------7------|
E|-----------------------------------|

CHORUS:

C#m B A
C#m B A
C#m B C#m 'A'
C#m B A
A B C#m
B A
A B C#m
'A' Bmaj 'C#m'
F#m B

Repeat VERSE


Repeat CHORUS

BRIDGE:

E6 G#5/D# C#m B
C#m Bmaj 'A'
E6 G#5/D# C#m B
C#m B A

SOLO:

e|---------------------------------------------------|
b|---------------------------------------------------|
g|--8/9-8-9-11-9-8-9-11-9--12/131313-11-9-8-6-4-2-1--|
d|---------------------------------------------------|
a|---------------------------------------------------|
E|---------------------------------------------------|

e|---------------------------------------------------|
b|----------------------------------------17-16------|
g|----------------------11p13-14-16p18-20-------15---|
d|--13-14-16-18b 14----------------------------------|
a|---------------------------------------------------|
E|---------------------------------------------------|

BRIDGE 2:

e|---------------------------------------|
b|--7---7---7---7----9---9---9---9-------|
g|---------------------9---9---9---9-----|
d|----9---9---9---9----------------------|
a|---------------------------------------|
E|---------------------------------------|

e|---------------------------------------|
b|--7---7---7---7----9---9---9---9-------|
g|---------------------9---9---9---9-----|
d|----9---9---9---9----------------------|
a|---------------------------------------|
E|---------------------------------------|

e|---------------------------------------|
b|--7---7---7---7---------5-3-2------3---|
g|--------------------9-8-6-3-2------3---|
d|----9---9---9---9---9-6-6-3-2------3---|
a|--------------------7-6-4-2--------2---|
E|---------------------------------------|

REPEAT CHORUS

ENDING:

e|--4-----------------------------------------------|
b|----5---7--4-----5-----4------5-----4-5-7-5-------|
g|------6------4-----6-----4------6-----------------|
d|---------------------6-----4------6---------------|
a|--------------------------------------------------|
E|--------------------------------------------------|

e|--4-----------------------------------------------|
b|----5---7--4-----5-----4------5-----4-5-7-5~------|
g|------6------4-----6-----4------6-----------------|
d|---------------------6-----4------6---------------| ~ let ring
a|--------------------------------------------------|
E|--------------------------------------------------|


Anyways; enjoy ? +P I'm not a pro at this so yeah, it might not be as accurate ^_^; . 





Comments


Popular Nana tabs & chords
Glamorous Sky Chords
Wish Chords
Glamorous Day Tabs
Rose Tabs
Glamorous Sky Ukulele
Wish Ukulele


Song lyrics



↑ Back to top | Tablatures and chords are parodies/interpretations of the original songs. You may use it for private study, scholarship, research or language learning purposes only
© 2014 AZChords.com Contact us | Privacy policy | DMCA | Add/correct tabs | Request tabs | Top 50 tabs