» » »

Nana, Glamorous Day Tabs (ver.1)

Artists:  A B C D E F G H I J K L M N O P Q R S T U V W X Y Z # 

Glamorous Day Tabs (ver.1)

Nana Tabs
 Rating:
4/5 (4 votes)
Glamorous Day lessons Tabs too difficult? Try these video lessons and learn fast
1
                                           GLAMOROUS DAY
                               As recorded by Nana


Gtr I (E A D G B E) - 'Untitled'

 4/4
  Gtr I
   PM----------------------------------------------------|
   E E E E E E E E E E E E E E E E E E E E E E E E E E E E E E
|-----------------------------------------------------------------|
|-----------------------------------------------------------------|
|-----------------------------------------------------------------|
|--9-9-9-9-9-9-9-9------------------------------------------------|
|--7-7-7-7-7-7-7-7-9-9-9-9-9-9-9-7-7-7-7-7-7-7-7-9-9-9-9-9-9-9----|
|------------------7-7-7-7-7-7-7-5-5-5-5-5-5-5-5-7-7-7-7-7-7-7----|


  Q. Q. Q.   Q. Q. Q.  E
|----------------------------|
|----------------------------|
|-9--9--9--------------------|
|-9--9--9----9--9--9---------|
|-7--7--7----9--9--9---------|
|------------7--7--7---9\----|


  E E E E E E E E   E E E E E E E E   E E E E E E E E   E E E E
|-----------------|-----------------|-----------------|------------|
|-----------------|-----------------|-----------------|------------|
|-----------------|-----------------|-----------------|------------|
|-9-9-9-9-9-9-9-9-|-----------------|-----------------|------------|
|-7-7-7-7-7-7-7-7-|-9-9-9-9-9-9-9-7-|-7-7-7-7-7-7-7-7-|-7-7-7-7----|
|-----------------|-7-7-7-7-7-7-7-5-|-5-5-5-5-5-5-5-5-|-5-5-5-5----|


  Q.   Q  Q.   Q    Q.   Q  Q.     Q  Q.   Q  Q.     Q Q.
|-----------------|--------------|-----------------|--------|
|-7---------------|-7------------|----7------------|--------|
|------8--9----8--|------8--9----|-8-------8--9----|-8-9----|
|-----------------|--------------|-----------------|--------|
|-----------------|--------------|-----------------|--------|
|-----------------|--------------|-----------------|--------|
            
Submit corrections

comments powered by Disqus
↑ Back to top | Nana Tabs for Glamorous Day. Lyrics for acoustic guitar and electric guitar. 1 Tablatures and chords are parodies/interpretations of the original songs. You may use it for private study, scholarship, research or language learning purposes only