» » »

Name Taken, You Do It So Well Tabs (ver.1)

Artists:  A B C D E F G H I J K L M N O P Q R S T U V W X Y Z # 

You Do It So Well Tabs (ver.1)

Name Taken Tabs
 Rating:
4/5 (4 votes)
You Do It So Well lessons Tabs too difficult? Try these video lessons and learn fast
1
                Standard Tuning 
h - Hammer On 
p - Pull Off 
. - P.M 
R - Rest 
* - Harmonic 
~ - Let Ring 
Here is another one, it's pretty easy to play on guitar so just pay attention to 
the song, Name Taken has a lot of good songs but i think this is ONE of their 
best. 
-Figured out and submitted by "Hank the Tank" from Barstow, CA.... 
Dejackmo Von Rictor's drunk uncle 
Guitar 1...Clean Intro... >=Certain count
e|---------------|
B|---------------|
G|---------6-----|
D|-7---7---7>----|2X Clean then 2x W/Distortion
A|-7>--7>--5-----|
E|-5---4---------|
Guitar 2...(0:11)
e|----------------------------------|
B|----------------------------------|
G|-14---16---6---14---14---6~x-6~---|
D|--x>---x>--7>---x>---x>--7~x-7~---|
A|-12---14---5---12---11---5~x-5~---|
E|----------------------------------|
Guitar 1...Verse (0:21)
e|----------------------|
B|----------------------|
G|-11---2---7---4-------|
D|-11>--2>--7>--4>------|1x P.M then 1x open
A|--9---0---4---2-------|
E|----------------------|
Guitar 2...Verse (0:21)
e|-------------------------------------------------------------|
B|----10---10---10---10---9h10---10---10---9---10---9h10-------|
G|-------------------------------------------------------------|
D|-7-7--7-7--7-7--7-7--7-7----7-7--7-7--7-7-7-7--7-7-----------|2x
A|-------------------------------------------------------------|
E|-------------------------------------------------------------|
Guitar 2...Verse Cont. (0:32)
e|-----------|
B|-10--9-----|
G|--9>-9>----|
D|--7--7-----|I dont know how many times...im to lazy to tab the timeing and all that bull***
A|-----------|
E|-----------|
Guitar 1&2...Chours (0:42) >=Certain count
e|---------------|
B|---------------|
G|---------6-----|
D|-7---7---7>----|2X(but guitar 1 plays it 4x all together)
A|-7>--7>--5-----|
E|-5---4---------|
Guitar 2...Chours Cont. (0:53)
e|----------------------------------|
B|----------------------------------|
G|-14---16---6---14---14---6~x-6~---|
D|--x>---x>--7>---x>---x>--7~x-7~---|
A|-12---14---5---12---11---5~x-5~---|
E|----------------------------------|
Guitar 2...Verse (0:21)
e|----------------------|
B|----------------------|
G|-11---2---7---4-------|
D|-11>--2>--7>--4>------|2x P.M
A|--9---0---4---2-------|
E|----------------------|
Guitar 1...Verse(1:10)*=8 Times Cresendo!This is the easist way to play it, to me any ways
e|---------------------------------------------------------------------------|
B|---------------------------------------------------------------------------|
G|---------------------------------------------------------------------------|
D|-7*---7-9-7---9-7-11-7-9-7-9-11-9-7----------------------------------------|
A|----0-------0--------------------------------------------------------------|
E|---------------------------------------------------------------------------|
Guitar 1&2...Chours (1:23) >=Certain count
e|---------------|
B|---------------|
G|---------6-----|
D|-7---7---7>----|2X(but guitar 1 plays it 4x all together)
A|-7>--7>--5-----|
E|-5---4---------|
Guitar 2...Chours Cont. (1:33)
e|----------------------------------|
B|----------------------------------|
G|-14---16---6---14---14---6~x-6~---|
D|--x>---x>--7>---x>---x>--7~x-7~---|
A|-12---14---5---12---11---5~x-5~---|
E|----------------------------------|
Guitars 1&2 little fill before Bridge (1:44)
e|-------|
B|-------|
G|-6~----|
D|-7~----|
A|-5~----|
E|-------|
Guitars 1&2 Bridge Cont. (1:44-2:15) also
e|-7--7--7--7--9--9--9--9------|
B|--10-10-10-10-10-10-10-10----|
G|-----------------------------|
D|-----------------------------|alot of times hehe
A|-----------------------------|
E|-----------------------------|
Guitars 1&2...Outro? (2:20)
e|----------------------|
B|----------------------|
G|-11---2---7---4-------|
D|-11>--2>--7>--4>------|first the weird counts two times then u strum it 1 time 
A|--9---0---4---2-------|then u PM the  weird count
E|----------------------|
Guitar 1...Outro? (2:41-2:51)A little faster than the Verse
e|-------------------------------------------------------------------------|
B|-------------------------------------------------------------------------|
G|-------------------------------------------------------------------------|
D|----7-9-7---9-7-11-7-9-7-9-11-9-7----------------------------------------|
A|--0-------0--------------------------------------------------------------|
E|-------------------------------------------------------------------------|
Guitar 1...Outro (3:02)
e|-------4b-----|
B|--------------|
G|--2-----------|
D|--------------|
A|----0---------|
E|--------------|
Guitar 2...Outro (3:02)
e|--------------|		e|------0-------|
B|--------------|		B|--------------|
G|-------9------|	or	G|----2---------|
D|-7------------|		D|-4------------|
A|----9---------|		A|--------------|
E|--------------|		E|--------------|
Thats all fokes...I love you Brittany! *12-29-03*
PAYCE!
            
Submit corrections

comments powered by Disqus
↑ Back to top | Name Taken Tabs for You Do It So Well. Lyrics for acoustic guitar and electric guitar. 1 Tablatures and chords are parodies/interpretations of the original songs. You may use it for private study, scholarship, research or language learning purposes only