>
 >
Write Back

Write Back Guitar Tabs

Name Taken - Write Back chords, tabs, tablatures, lyrics

Guitar lessons | Add/correct | Request | Top 50 tabs Artists:  A B C D E F G H I J K L M N O P Q R S T U V W X Y Z 0-9

Write Back Guitar Tabs – Name Taken

CD, Sheet music, Poster

Do you like Write Back? Share with your friends now
ChordsTabsUkulele
Intro
-Guitar One-

e -1010---1010---1010---1010---1010---1010---1010---1010---77---77---77---77-- 
B -----88-----88-----88-----88-----88-----88-----88-----88---88---88---88---88 
G ---------------------------------------------------------------------------- 
D ---------------------------------------------------------------------------- 
A ---------------------------------------------------------------------------- 
E ---------------------------------------------------------------------------- 
play a few times(listen to song for timing)

-Guitar Two-

e -----10--10-----10--10--77-----7----77-----7-------------------------------- 
B ---8---8------8---8--------8-----8-----8------8----------------------------- 
G -9----------9----------------7-----------7---------------------------------- 
D ---------------------------------------------------------------------------- 
A ---------------------------------------------------------------------------- 
E ---------------------------------------------------------------------------- 

-Guitar One-

e ---------------------------------------------------------------------------- 
B ---------------------------------------------------------------------------- 
G ----------------55555555555---9999999---7777777---5555555555555------------- 2x
D -555555555555---55555555555---9999999---7777777---5555555555555------------- 
A -555555555555---33333333333---7777777---5555555---3333333333333------------- 
E -333333333333--------------------------------------------------------------- 

-Guitar Two- 

e ---7777777788887777-7777777788887777 7777777788887777-7777777788887777------ 
B ---8888888888888888-8888888888888888-8888888888888888-8888888888888888------ 
G ---------------------------------------------------------------------------- 
D ---------------------------------------------------------------------------- 
A ---------------------------------------------------------------------------- 
E ---------------------------------------------------------------------------- 
play a few times(listen for timing)

Verse 
-Both Guitars-

e ------10---10---10---10---10---10--10--7---7---87---7---7---7---87---7---7---7--- 
B ----8----8----8----8----8----8---8-------8---8----8---8---8---8----8---8---8---8- 
G --9------------------------------------------------------------------------------ 
D --------------------------------------------------------------------------------- 
A --------------------------------------------------------------------------------- 
E --------------------------------------------------------------------------------- 

Chorus 
-Guitar One-

e ---------------------------------------------------------------------------- 
B ---------------------------------------------------------------------------- 
G -----------------555555555555---999999999---77777777---5555555555555-------- 
D --555555555555---555555555555---999999999---77777777---5555555555555-------- 2x
A --555555555555---333333333333---777777777---55555555---3333333333333-------- 
E --333333333333-------------------------------------------------------------- 

-Guitar Two-

e ---7777777788887777-7777777788887777-7777777788887777-7777777788887777------ 
B ---8888888888888888-8888888888888888-8888888888888888-8888888888888888------ 
G ---------------------------------------------------------------------------- 
D ---------------------------------------------------------------------------- 
A ---------------------------------------------------------------------------- 
E ---------------------------------------------------------------------------- 


-Second verse is the same as the first verse-

Bridge 

e ---------------------------------------------------------------------------- 
B ---------------------------------------------------------------------------- 
G ------------------55555-55555-55---99999---77777-77---55555-55555-55--575--- 
D -55555-55555-55---55555-55555-55---99999---77777-77---55555-55555-55--xxx--- 
A -55555-55555-55---33333-33333-33---77777---55555-55---33333-33333-33--353--- 
E -33333-33333-33------------------------------------------------------------- 

-Both Guitars-

e --10---10---10---10---7---7---7---7---10---10---10---10---7---7---7---7----- 
B -----8----8----8----8---8---8---8---8----8----8----8----8---8---8---8---8--- 
G ---------------------------------------------------------------------------- 
D ---------------------------------------------------------------------------- 
A ---------------------------------------------------------------------------- 
E ---------------------------------------------------------------------------- 

-End on this-

e ---------------------------------------------------------------------------- 
B ---------------------------------------------------------------------------- 
G ---------------------------------------------------------------------------- 
D ---55555-55555-555--55555-55555-55555--------------------------------------- 
A ---xxxxx-xxxxx-xxx--xxxxx-xxxxx-xxxxx--------------------------------------- 
E ---33333-33333-333--33333-33333-33333---------------------------------------





Comments


Popular Name Taken tabs & chords
Magnolia Bass Tabs
Control Chords
Write Back Chords
A Year Spent Cold Tabs
I Quit My Scene Tabs
Safety Of Routine Tabs
Safety Of Routine 1 Tabs
Someone Tabs
Today 2 Tabs
We Give Up Sometimes Tabs


Song lyrics



↑ Back to top | Tablatures and chords are parodies/interpretations of the original songs. You may use it for private study, scholarship, research or language learning purposes only
© 2014 AZChords.com Contact us | Privacy policy | DMCA | Add/correct tabs | Request tabs | Top 50 tabs