>
 >
Someone

Someone Guitar Tabs

Name Taken - Someone chords, tabs, tablatures, lyrics

Guitar lessons | Add/correct | Request | Top 50 tabs Artists:  A B C D E F G H I J K L M N O P Q R S T U V W X Y Z 0-9

Someone Guitar Tabs – Name Taken

CD, Sheet music, Poster

Do you like Someone? Share with your friends now
Tabs
Intro - 2x 
e|----------------------------------------------------------------------| 
B|----------------------------------------------------------------------| 
G|-4-4-4-4---3-3-3-3----1-1-1-1---3-3-3-3-------------------------------| 
D|--6-6-6-6---4-4-4-4----2-2-2-2---4-4-4-4------------------------------| 
A|----------------------------------------------------------------------| 
E|----------------------------------------------------------------------| 

Intro(continued) - the part when the bass comes in - 2x 
e|----------------------------------------------------------------------| 
B|----------------------------------------------------------------------| 
G|-4-4-6-4---3-3-6-3----1-1-4-1---3-3-6-3-------------------------------| 
D|--6-6-6-6---4-4-4-4----2-2-2-2---4-4-4-4------------------------------| 
A|----------------------------------------------------------------------| 
E|----------------------------------------------------------------------| 

After the intro play this once, figure out the strumming 
e|----------------------------------------------------------------------| 
B|----------------------------------------------------------------------| 
G|-4-4-4-4-4-4-4-4------------------------------------------------------| 
D|-4-4-4-4-4-4-4-4--6-6-6-6-6-6-6-6--2-2-2-2-2-2-2-2-2-2-2-2-2-2-2-2-2--| 
A|-2-2-2-2-2-2-2-2--6-6-6-6-6-6-6-6--2-2-2-2-2-2-2-2-2-2-2-2-2-2-2-2-2--| 
E|------------------4-4-4-4-4-4-4-4--0-0-0-0-0-0-0-0-0-0-0-0-0-0-0-0-0--| 

Verse (guitar 2) 2x 
e|----------------------------------------------------------------------| 
B|----------------------------------------------------------------------| 
G|-4-4-4-4---3-3-3-3----1-1-1-1---3-3-3-3-------------------------------| 
D|--6-6-6-6---4-4-4-4----2-2-2-2---4-4-4-4------------------------------| 
A|----------------------------------------------------------------------| 
E|----------------------------------------------------------------------| 

verse continued 2x 
e|----------------------------------------------------------------------| 
B|----------------------------------------------------------------------| 
G|-4-4-6-4---3-3-6-3----1-1-4-1---3-3-6-3-------------------------------| 
D|--6-6-6-6---4-4-4a-4----2-2-2-2---4-4-4-4-----------------------------| 
A|----------------------------------------------------------------------| 
E|----------------------------------------------------------------------| 

Verse (guitar 1) 
e|----------------------------------------------------------------------| 
B|----------------------------------------------------------------------| 
G|----------------------------------------------------------------------| 
D|-6-6-6-6-6-6-6-6---4-4-4-4-4-4-4-4--2-2-2-2-2-2-2-2--4-4-4-4-4-4-4-4--| 
A|-6-6-6-6-6-6-6-6---4-4-4-4-4-4-4-4--2-2-2-2-2-2-2-2--4-4-4-4-4-4-4-4--| 
E|-4-4-4-4-4-4-4-4---2-2-2-2-2-2-2-2--0-0-0-0-0-0-0-0--2-2-2-2-2-2-2-2--| 
palm mute off and on 


Chorus: 
Figure out your own rhythm. 2x 
e|----------------------------------------------------------------------| 
B|----------------------------------------------------------------------| 
G|-4-4-4-4-4-4-4-4------------------------------------------------------| 
D|-4-4-4-4-4-4-4-4--6-6-6-6-6-6-6-6--2-2-2-2-2-2-2-2-2-2-2-2-2-2-2-2-2--| 
A|-2-2-2-2-2-2-2-2--6-6-6-6-6-6-6-6--2-2-2-2-2-2-2-2-2-2-2-2-2-2-2-2-2--| 
E|------------------4-4-4-4-4-4-4-4--0-0-0-0-0-0-0-0-0-0-0-0-0-0-0-0-0--| 

After the chorus play this transition 
(Guitar 2) 
e|----------------------------------------------------------------------| 
B|----------------------------------------------------------------------| 
G|-4-4-4-4---3-3-3-3----1-1-1-1---3-3-3-3-------------------------------| 
D|--6-6-6-6---4-4-4-4----2-2-2-2---4-4-4-4------------------------------| 
A|----------------------------------------------------------------------| 
E|----------------------------------------------------------------------| 

Guitar 1 
e|----------------------------------------------------------------------| 
B|----------------------------------------------------------------------| 
G|----------------------------------------------------------------------| 
D|----6-6-6----4-4-4---2-2-2---4-4-4------------------------------------| 
A|----6-6-6----4-4-4---2-2-2---4-4-4------------------------------------| 
E|----4-4-4----2-2-2---0-0-0---2-2-2------------------------------------| 

2nd Verse 2x - ring each chord 
e|----------------------------------------------------------------------| 
B|----------------------------------------------------------------------| 
G|----------------------------------------------------------------------| 
D|----6----4---2---4----------------------------------------------------| 
A|----6----4---2---4----------------------------------------------------| 
E|----4----2---0---2----------------------------------------------------| 

2nd verse continued: 
e|----------------------------------------------------------------------| 
B|----------------------------------------------------------------------| 
G|----------------------------------------------------------------------| 
D|-6-6-6-6-6-6-6-6---4-4-4-4-4-4-4-4--2-2-2-2-2-2-2-2--4-4-4-4-4-4-4-4--| 
A|-6-6-6-6-6-6-6-6---4-4-4-4-4-4-4-4--2-2-2-2-2-2-2-2--4-4-4-4-4-4-4-4--| 
E|-4-4-4-4-4-4-4-4---2-2-2-2-2-2-2-2--0-0-0-0-0-0-0-0--2-2-2-2-2-2-2-2--| 
Palm Muted........................................................... 

chorus 2x 




e|----------------------------------------------------------------------| 
B|----------------------------------------------------------------------| 
G|----6~--------------------------------------------------------------| 
D|---------------------6-4---6-4----6-4--6-4-----------------------| 
A|----------------------------------------------------------------------| 
E|----------------------------------------------------------------------| 

4x 
e|----------------------------------------------------------------------| 
B|----------------------------------------------------------------------| 
G|-6-6-6-6-3-3-3-3------------------------------------------------------| 
D|--4-4-4-4-4-4-4-4-----------------------------------------------------| 
A|----------------------------------------------------------------------| 
E|----------------------------------------------------------------------| 


e|----------------------------------------------------------------------| 
B|----------------------------------------------------------------------| 
G|----------------------------------------------------------------------| 
D|-6-6-6-6-6-6-6-6---4-4-4-4-4-4-4-4--2-2-2-2-2-2-2-2--4-4-4-4-4-4-4-4--| 
A|-6-6-6-6-6-6-6-6---4-4-4-4-4-4-4-4--2-2-2-2-2-2-2-2--4-4-4-4-4-4-4-4--| 
E|-4-4-4-4-4-4-4-4---2-2-2-2-2-2-2-2--0-0-0-0-0-0-0-0--2-2-2-2-2-2-2-2--| 

Chorus 4x's
   
End
e|----------------------------------------------------------------------| 
B|----------------------------------------------------------------------| 
G|----------------------------------------------------------------------| 
D|----4-----------------------------------------------------------------| 
A|----4-----------------------------------------------------------------| 
E|----2-----------------------------------------------------------------|





Comments


Popular Name Taken tabs & chords
I Quit My Scene Chords
Write Back Chords
You Do It So Well Chords
Clear And Conscious Intro Tabs
I Quit My Scene Tabs
Motionless Tabs
Safety Of Routine Tabs
We Give Up Sometimes Tabs
Write Back Ukulele
You Do It So Well Ukulele


Song lyrics



↑ Back to top | Tablatures and chords are parodies/interpretations of the original songs. You may use it for private study, scholarship, research or language learning purposes only
© 2014 AZChords.com Contact us | Privacy policy | DMCA | Add/correct tabs | Request tabs | Top 50 tabs