>
 >
Motionless

Motionless Guitar Tabs

Name Taken - Motionless chords, tabs, tablatures, lyrics

Guitar lessons | Add/correct | Request | Top 50 tabs Artists:  A B C D E F G H I J K L M N O P Q R S T U V W X Y Z 0-9

Motionless Guitar Tabs – Name Taken

CD, Sheet music, Poster

Do you like Motionless? Share with your friends now
Tabs
Drop D Tuning
/or\ - Slide, Up or Down
h - hammer on
p - pull off
. - P.M
*Okay, im calling the left channel G1 and the right G2
I figured out this song with no A sting (Why?) cuz im HARD!, and I have no eyedea what kind of effect he is using so just play it with distortion...Still sounds good, and I didnt figure out the stumming in the intro so this time you have to, nigga!
-Figured out and submitted by "Hank the Tank" Dejackmo Von Rictors drunk uncle from Barstow, CA

Guitar 1... >=Certain Count
e|-----------------|
B|-----------------|
G|-7------7--------|
D|-x>-----5>-------|
A|-5------5--------|
E|-0------5--------|
Guitar 1...(0:06)----------------------|
e|-------------------------------|     |
B|-------------------------------|     |
G|-7~-7--7-7-11-11-11--9--9------|     |    
D|-x~-x--x-x--x--x--x--x--x------|3x   |
A|-5~-5--5-5--9--9--9--7--7------|     |
E|-0~-0--0-0---------------------|     |
Guitar 1 Cont...(0:15)                 |This whole thing Twice
e|-------------------------------|     |
B|-------------------------------|     |
G|-7~-7--7-7---7-7-7--6-6-6------|     |
D|-x~-x--x-x---5-5-5--4-4-4------|1x   |
A|-5~-5--5-5---5-5-5--4-4-4------|     |
E|-0~-0--0-0---5-5-5--4-4-4------|     |
                 ----------------------|
Guitar 2...(0:06)                       Guitar 2 Cont...(0:15)(Do these both parts 2x)
e|----------------------------------|   |-----------------------------|
B|----------------------------------|   |-----------------------------|
G|-7~-7--7-7---14--14--14--12--12---|   |-7~--7--7-7---7-7-7--6-6-6---|
D|-x~-x--x-x----x---x---x---x---x---|3x |-x~--x--x-x---5-5-5--4-4-4---|1x
A|-5~-5--5-5---12--12--12--10--10---|   |-5~--5--5-5---5-5-5--4-4-4---|
E|-0~-0--0-0------------------------|   |-0~--0--0-0---5-5-5--4-4-4---|
Guitars 1&2...(0:26) >=Certain Count <=4-6 Times #=2-3 Times
e|---------------------------|(This verse I made my own, it goes with it the same and if you
B|-7---8--10---8-------------|play it over the verse you cant really tell the difference so
G|-7---7---7---7-------------|just use this, ight)
D|-0>--0<--0#--0#------------|4x
A|-0---0---0---0-------------|
E|-0---0---0---0-------------|
Guitar 1...Guitar Riff at(0:45) "....Meeee"
e|-----------------------|
B|-8-7-10-8-8-7-10-7\----|
G|--0-0--0-0-0-0--0------|
D|--.-.--.-.-.-.--.------|1x
A|-----------------------|
E|-----------------------|
Guitar 1...(0:48) "Well here I lay..."----------------------|
e|-------------------------------|                          |
B|-------------------------------|                          |
G|-7~-7--7-7-11-11-11--9--9------|                          |    
D|-x~-x--x-x--x--x--x--x--x------|3x                        |
A|-5~-5--5-5--9--9--9--7--7------|                          |
E|-0~-0--0-0---------------------|                          |
Guitar 1 Cont...(0:55)                                      |This whole thing Twice
e|-------------------------------|                          |
B|-------------------------------|                          |
G|-7~-7--7-7---7-7-7--6-6-6------|                          |
D|-x~-x--x-x---5-5-5--4-4-4------|1x                        | 
A|-5~-5--5-5---5-5-5--4-4-4------|                          |
E|-0~-0--0-0---5-5-5--4-4-4------|                          |
                                      ----------------------|
Guitar 2...(0:48) "Well here I lay..."   Guitar 2 Cont...(0:55)(Do these both parts 2x)
e|----------------------------------|   |-----------------------------|
B|----------------------------------|   |-----------------------------|
G|-7~-7--7-7---14--14--14--12--12---|   |-7~--7--7-7---7-7-7--6-6-6---|
D|-x~-x--x-x----x---x---x---x---x---|3x |-x~--x--x-x---5-5-5--4-4-4---|1x
A|-5~-5--5-5---12--12--12--10--10---|   |-5~--5--5-5---5-5-5--4-4-4---|
E|-0~-0--0-0------------------------|   |-0~--0--0-0---5-5-5--4-4-4---|
Guitars 1&2 I guess..."Leave me here..."(0:58) >=Certain Count #=2-3 Times
e|----------------|
B|----------------|
G|-7/--14\--12----|
D|-x/>--x\#--x#---|4x
A|-5/--12\--10----|
E|-0--------------|
Guitar 3?!?!...(0:58) Fill #1
e|-----------------------|
B|-8-7-10-8-8-7-10-8-----|
G|--0-0--0-0-0-0--0------|
D|--.-.--.-.-.-.--.------|1,000,000,000x(I dont know...alot)
A|-----------------------|
E|-----------------------|
Guitars 1&2...(1:08) >=Certain Count <=4-6 Times #=2-3 Times
e|-----------------------|
B|-7---8--10---8---------|
G|-7---7---7---7---------|
D|-0>--0<--0#--0#--------|4x
A|-0---0---0---0---------|
E|-0---0---0---0---------|
Guitar 1...Guitar Riff at(1:27) "....Meeee"
e|-----------------------|
B|-8-7-10-8-8-7-10-7\----|
G|--0-0--0-0-0-0--0------|
D|--.-.--.-.-.-.--.------|1x
A|-----------------------|
E|-----------------------|
Guitar 1...(1:30) "Well here I lay..."----------------------|
e|-------------------------------|                          |
B|-------------------------------|                          |
G|-7~-7--7-7-11-11-11--9--9------|                          |    
D|-x~-x--x-x--x--x--x--x--x------|3x                        |
A|-5~-5--5-5--9--9--9--7--7------|                          |
E|-0~-0--0-0---------------------|                          |
Guitar 1 Cont...(1:37)                                      |This whole thing Twice
e|-------------------------------|                          |
B|-------------------------------|                          |
G|-7~-7--7-7---7-7-7--6-6-6------|                          |
D|-x~-x--x-x---5-5-5--4-4-4------|1x                        | 
A|-5~-5--5-5---5-5-5--4-4-4------|                          |
E|-0~-0--0-0---5-5-5--4-4-4------|                          |
                                      ----------------------|
Guitar 2...(1:30) "Well here I lay..."   Guitar 2 Cont...(1:37)(Do these both parts 2x)
e|----------------------------------|   |-----------------------------|
B|----------------------------------|   |-----------------------------|
G|-7~-7--7-7---14--14--14--12--12---|   |-7~--7--7-7---7-7-7--6-6-6---|
D|-x~-x--x-x----x---x---x---x---x---|3x |-x~--x--x-x---5-5-5--4-4-4---|1x
A|-5~-5--5-5---12--12--12--10--10---|   |-5~--5--5-5---5-5-5--4-4-4---|
E|-0~-0--0-0------------------------|   |-0~--0--0-0---5-5-5--4-4-4---|
Guitars 1&2 I guess..."Leave me here..."(1:40) >=Certain Count #=2-3 Times
e|----------------|
B|----------------|
G|-7/--14\--12----|
D|-x/>--x\#--x#---|4x
A|-5/--12\--10----|
E|-0--------------|
Guitar 3?!?!...(1:40) Fill #1
e|-----------------------|
B|-8-7-10-8-8-7-10-8-----|
G|--0-0--0-0-0-0--0------|
D|--.-.--.-.-.-.--.------|1,000,000,000x(I dont know...alot)
A|-----------------------|
E|-----------------------|
Guitars 1&2 I guess (1:50)
e|-------|  |----------------|
B|-------|  |--7--8-10--8----|
G|-11~---|  |--7--7--7--7----|
D|--x~---|  |--0>-0--0>-0----|4x??
A|--9~---|  |--0--0--0--0----|
E|-------|  |--0--0--0--0----|
Guitars 1&2 "Just how you left me..." (2:20)
e|----------------------------------------15~----|
B|-----------------------------------------------|
G|-----------------------------------------------|
D|-0-0--0-0--0-0--0-0---5-5--5-5--5-5------------|
A|-0-0--0-0--0-0--0-0---5-5--5-5--5-5------------|
E|-0-0--0-0--0-0--0-0---5-5--5-5--5-5------------|
Guitars 1&2 "And how you left me..." (2:25)
e|-----------------------------------------------|...YEA!!!!
B|-----------------------------------------------|
G|-----------------------------------------------|
D|-0-0--0-0--0-0--0-0---5-5--5-5--5-5------------|
A|-0-0--0-0--0-0--0-0---5-5--5-5--5-5------------|
E|-0-0--0-0--0-0--0-0---5-5--5-5--5-5------------|
Guitar 3?!? "And how you left me..." (2:25)
e|-----------------------------------|...YEA!!!!
B|-----------------------------------|
G|-7---11----------------------------|
D|-x>---x>---------------------------|
A|-5----9----------------------------|
E|-----------------------------------|
Guitar 1...(2:30) "Well here I lay..."----------------------|
e|-------------------------------|                          |
B|-------------------------------|                          |
G|-7~-7--7-7-11-11-11--9--9------|                          |    
D|-x~-x--x-x--x--x--x--x--x------|3x                        |
A|-5~-5--5-5--9--9--9--7--7------|                          |
E|-0~-0--0-0---------------------|                          |
Guitar 1 Cont...(2:37)                                      |This whole thing Twice
e|-------------------------------|                          |
B|-------------------------------|                          |
G|-7~-7--7-7---7-7-7--6-6-6------|                          |
D|-x~-x--x-x---5-5-5--4-4-4------|1x                        | 
A|-5~-5--5-5---5-5-5--4-4-4------|                          |
E|-0~-0--0-0---5-5-5--4-4-4------|                          |
                                      ----------------------|
Guitar 2...(2:30) "Well here I lay..."   Guitar 2 Cont...(2:37)(Do these both parts 2x)
e|----------------------------------|   |-----------------------------|
B|----------------------------------|   |-----------------------------|
G|-7~-7--7-7---14--14--14--12--12---|   |-7~--7--7-7---7-7-7--6-6-6---|
D|-x~-x--x-x----x---x---x---x---x---|3x |-x~--x--x-x---5-5-5--4-4-4---|1x
A|-5~-5--5-5---12--12--12--10--10---|   |-5~--5--5-5---5-5-5--4-4-4---|
E|-0~-0--0-0------------------------|   |-0~--0--0-0---5-5-5--4-4-4---|
Guitars 1&2 I guess..."Leave me here..."(2:40) >=Certain Count #=2-3 Times
e|----------------|
B|----------------|
G|-7/--14\--12----|
D|-x/>--x\#--x#---|4x
A|-5/--12\--10----|
E|-0--------------|
Guitar 3?!?!...(2:40) Fill #1
e|-----------------------|
B|-8-7-10-8-8-7-10-8-----|
G|--0-0--0-0-0-0--0------|
D|--.-.--.-.-.-.--.------|1,000,000,000x(I dont know...alot)
A|-----------------------|
E|-----------------------|
Guitars 1&2 "you left me..." (2:49)
e|----------------------------------------15~----|
B|-----------------------------------------------|
G|-----------------------------------------------|
D|-0-0--0-0--0-0--0-0---5-5--5-5--5-5------------|
A|-0-0--0-0--0-0--0-0---5-5--5-5--5-5------------|
E|-0-0--0-0--0-0--0-0---5-5--5-5--5-5------------|
Guitars 1&2 "you left me..." (2:54)
e|-----------------------------------------------|
B|-----------------------------------------------|
G|-----------------------------------------------|
D|-0-0--0-0--0-0--0-0---5-5--5-5--5-5--5-5-------|
A|-0-0--0-0--0-0--0-0---5-5--5-5--5-5--5-5-------|
E|-0-0--0-0--0-0--0-0---5-5--5-5--5-5--5-5-------|
Guitar 3?!? "you left me..." (2:54)
e|-----------------------------------|
B|-----------------------------------|
G|-7---11----------------------------|
D|-x>---x>---------------------------|
A|-5----9----------------------------|
E|-----------------------------------|
Guitar 1...(3:00)
e|-----------------------|
B|-----------------------|
G|-----------------------|
D|-0~~~~~~~~~~~~~~~~~~---|
A|-0~~~~~~~~~~~~~~~~~~---|
E|-0~~~~~~~~~~~~~~~~~~---|
Guitar 2...(3:00)
e|-----------------------|
B|-----------------------|
G|-14~~~~~~~~~~~~~~~~~---|
D|--x~~~~~~~~~~~~~~~~~---|
A|-12~~~~~~~~~~~~~~~~~---|
E|-(0)~~~~~~~~~~~~~~~~---|
Yup, and there you have it...have fun and rock out with your cock out i guess im so high right now....
"This is not how I need to remember you...."





Comments


Popular Name Taken tabs & chords
Safety Routine Bass Tabs
Hold On For Your Dearest Lie Chords
Clear And Conscious Intro Tabs
Control Intro Tabs
I Quit My Scene Tabs
Runs Red Tabs
Someone Tabs
Waiting Intro Tabs
Write Back Tabs
Hold On For Your Dearest Lie Ukulele


Song lyrics



↑ Back to top | Tablatures and chords are parodies/interpretations of the original songs. You may use it for private study, scholarship, research or language learning purposes only
© 2014 AZChords.com Contact us | Privacy policy | DMCA | Add/correct tabs | Request tabs | Top 50 tabs