>
 >
Magnolia New Full Version

Magnolia New Full Version Guitar Tabs

Name Taken - Magnolia New Full Version chords, tabs, tablatures, lyrics

Guitar lessons | Add/correct | Request | Top 50 tabs Artists:  A B C D E F G H I J K L M N O P Q R S T U V W X Y Z 0-9

Magnolia New Full Version Guitar Tabs – Name Taken

CD, Sheet music, Poster

Do you like Magnolia New Full Version? Share with your friends now
Tabs
Song In Drop D
/ or \ - Slide, Up or Down 
~ - Ring Out
! - Stop Immediatley
* - Palm-Mute

This is the full new version of Magnolia off the Split with Bayside. Enjoy.

Intro: All 4 Times
e--------------------------------------------------------------------------
B--------------------------------------------------------------------------
G-------10-10-10---------9/12-12-10---------10-10-10---------10/12-12/14---
D-000----x--x--x---000---x/-x--x--x---888----x--x--x---888----x/-x--x/-x---
A-000----8--8--8---000---7/10-10--8---888----8--8--8---888----8/10-10/12---
D-000--------------000----------------888--------------888-----------------

On last time end on:
D-0~-----------------
A-0~-----------------
D-0~-----------------

Then Second Intro Part: Play 2 Times
e-------------------------------------------------------------------------------------------------------
B-------------------------------------------------------------------------------------------------------
G-------------------------------------------------------------------------------------------------------
D-0-0-0---000-0--00--0000---8-8-8---888-8--88--8888---7-7-7---777-7--77--7777---8-8-8---888-8--88--8888-
A-0-0-0---000-0--00--0000---8-8-8---888-8--88--8888---7-7-7---777-7--77--7777---8-8-8---888-8--88--8888-
D-0-0-0---000-0--00--0000---8-8-8---888-8--88--8888---7-7-7---777-7--77--7777---8-8-8---888-8--88--8888-

On Second Time Play This (Solo): 8 Times (FAST)
e---------------------------------------
B---13-------------10-------------------
G-------10-9-10-------10-9-10-----------
D---------------------------------------
A---------------------------------------
D---------------------------------------

Verse: "Quit surrounding me.." (All Played 2 Times)
e-------------------------------------------------------------------------------
B-13-13-13---131313-13--1313--13131313---10-10-10---101010-10--1010--10101010---
G-10-10-10---101010-10--1010--10101010---10-10-10---101010-10--1010--10101010---
D-------------------------------------------------------------------------------
A-------------------------------------------------------------------------------
D-------------------------------------------------------------------------------

e------------------------------------------------------------------
B-9-9-9---999-9--99--9999---10-10-10---101010-10--1010--10101010---
G-9-9-9---999-9--99--9999---10-10-10---101010-10--1010--10101010---
D------------------------------------------------------------------
A------------------------------------------------------------------
D------------------------------------------------------------------

Chorus: "And we can tell by now..." (Played 2 times. Strumming easy. Just listen)
e------------------|--------------------------------------------------------------
B------------------|--------------------------------------------------------------
G------------------|--------------------------------------------------------------
D-0---8---12---10--|--0~----------------------------------------------------------
A-0---8---12---10--|--0~----------------------------------------------------------
D-0---8---12---10--|--0~----------------------------------------------------------

Then Back into first Intro: All Played 4 Times. 
On last time stop with this:
G-10!-----------------------
D--x!-----------------------
A--8!-----------------------
D---------------------------

Then Back to chorus:

Then on to (Solo): First 4 times palm-muted and second 4 times play them regularly.

Break: "And I'm forever lost from hope.."
e---------------------|-------------------
B---------------------|-------------------
G---------------------|-------------------
D-0~---8~---7~---8~---|--0~~---0~~---0!---
A-0~---8~---7~---8~---|--0~~---0~~---0!---
D-0~---8~---7~---8~---|--0~~---0~~---0!---

2nd Break: Just Guitar At First
e--0--0--0--0--0--0--0--0---0--0--0--0--0--0--0--0--0-0-0-0-0-0-0-0---0--0--0--0--0--0--0--0--
B-13-13-13-13-13-13-13-13--10-10-10-10-10-10-10-10--9-9-9-9-9-9-9-9--10-10-10-10-10-10-10-10--
G-10-10-10-10-10-10-10-10--10-10-10-10-10-10-10-10--9-9-9-9-9-9-9-9--10-10-10-10-10-10-10-10--
D--*--*--*--*--*--*--*--*---*--*--*--*--*--*--*--*--*-*-*-*-----------------------------------
A---------------------------------------------------------------------------------------------
D---------------------------------------------------------------------------------------------

Then All Comes In: 2nd Guitar Does This 6 times
e----------------------------------------------
B----------------------------------------------
G----------------------------------------------
D-00-0000-00-88-8888-88-77777777-88888888------
A-00-0000-00-88-8888-88-77777777-88888888------
D-00-0000-00-88-8888-88-77777777-88888888------

On 6th time end like this:
e-------------------------------------------------
B-------------------------------------------------
G-------------------------------------------------
D-00-0000-00-88-8888-88-77777777-8-8-8-8-8-8--0~--
A-00-0000-00-88-8888-88-77777777-8-8-8-8-8-8--0~--
D-00-0000-00-88-8888-88-77777777-8-8-8-8-8-8--0~--

During that part the other guitar goes crazy.. but I couldn't really tell just keep with the beat and 





Comments


Popular Name Taken tabs & chords
Magnolia Bass Tabs
Hold On For Your Dearest Lie Chords
Write Back Chords
You Do It So Well Chords
A Year Spent Cold Tabs
For Sunday Tabs
I Quit My Scene Tabs
Motionless Tabs
Someone Tabs
Control Ukulele


Song lyrics



↑ Back to top | Tablatures and chords are parodies/interpretations of the original songs. You may use it for private study, scholarship, research or language learning purposes only
© 2014 AZChords.com Contact us | Privacy policy | DMCA | Add/correct tabs | Request tabs | Top 50 tabs