>
 >
I Quit My Scene

I Quit My Scene Guitar Tabs

Name Taken - I Quit My Scene chords, tabs, tablatures, lyrics

Guitar lessons | Add/correct | Request | Top 50 tabs Artists:  A B C D E F G H I J K L M N O P Q R S T U V W X Y Z 0-9

I Quit My Scene Guitar Tabs – Name Taken

CD, Sheet music, Poster

Do you like I Quit My Scene? Share with your friends now
ChordsTabs
Drop D Tuning
/or\ - Slide, Up or Down
h - hammer on
p - pull off
. - P.M
Ok guys this tab I am not all that proud of cuz I couldnt get the *** Intro!!!
Someone please figure it out...Whatever tho its all good, everything sounds pretty
good so here it is.
-Figured out and submitted by "Hank the Tank" Dejackmo Von Rictors drunk uncle from Barstow CA 

 
Guitars 1&2..(0:19)
e|-7--7--7--7---5--5--5--5---------|
B|--8--8--8--8---8--8--8--8--------|
G|---------------------------------|
D|---------------------------------|
A|---------------------------------|
E|---------------------------------|
Guitar 1..(0:25) "So I wore..."
e|----------|  |--------------------------------|
B|----------|  |--------------------------------|
G|-5-5---5--|  |-7--7--7--7--5--5--4--4---------|
D|-5-5-R-5--|  |--5--5--5--5--5--5--5--5--------|2x
A|-3-3---3--|  |--------------------------------|
E|----------|  |--------------------------------|
Guitar 2..(0:25) "So I wore..."     (0:38) "...War"
e|-----------------------|    |--7--7--7--7--5--5--5h7--7--------------------------|
B|-----------------------|    |-8--8--8--8----8--8----8--8-------------------------|
G|-5-5---5---7~----------|    |----------------------------------------------------|
D|-5-5-R-5---7~----------|    |----------------------------------------------------|2x
A|-3-3---3---5~----------|    |----------------------------------------------------|
E|-----------------------|    |----------------------------------------------------|
Guitar 1..(0:38)
e|-7~--7~--7~--7~--5~--5~--5h7~--7~-------|
B|----------------------------------------|
G|----------------------------------------|
D|----------------------------------------|2x
A|----------------------------------------|
E|----------------------------------------|
Guitar 1..(0:51) "Is this what..."
e|----------------------------------|
B|----------------------------------|
G|-7--7--7--7--5--5--4--4-----------|
D|--5--5--5--5--5--5--5--5----------|1x
A|----------------------------------|
E|----------------------------------|
Guitar 2..(0:51) "Is this what..."
e|-7--7--7--7--5--5--3--3-----------|
B|----------------------------------|
G|----------------------------------|
D|--5--5--5--5--5--5--5--5----------|1x
A|----------------------------------|
E|----------------------------------|
Guitar 1..(0:57) "So why dont..." >=Certain Count <=8 Times
e|---------------------------------------------------------------------------|
B|---------------------------------------------------------------------------|
G|-5-----------5-----------5-----------5-5--5-5------------------------------|
D|-5>--5---0---5>--5---0---5>--5---0---5-5R-5-5<--5---0----------------------|
A|-3---5<--0<--3---5<--0<--3---5<--0<--3-3--3-3---5<--0<---------------------|
E|-----5---0-------5---0-------5---0--------------5---0----------------------|
Guitar 2..(0:57) "So why dont..." >=Certain Count <=8 Times
e|------------------|    |------------------------|fill #1
B|------------------|    |-8h10/12~---------------|
G|-5---12---14------|    |------------------------|
D|-5>---x<---x<-----|4x  |------------------------|3x
A|-3---10---12------|    |------------------------|
E|------------------|    |------------------------|
Guitar 1..(1:23)
e|----------------------------------|
B|----------------------------------|
G|-7--7--7--7--5--5--4--4-----------|
D|--5--5--5--5--5--5--5--5----------|2x
A|----------------------------------|
E|----------------------------------|
Guitar 1 Cont...(1:36) "I used to be..."
e|-7~--7~--7~--7~--5~--5~--5h7~--7~-------|
B|----------------------------------------|
G|----------------------------------------|
D|----------------------------------------|2x
A|----------------------------------------|
E|----------------------------------------|
Guitar 2..(1:23)       Guitar 2 Cont...(1:36) "I used to be..."
e|----------------|    |--7--7--7--7--5--5--5h7--7--------------------------|
B|----------------|    |-8--8--8--8----8--8----8--8-------------------------|
G|----7~----------|    |----------------------------------------------------|
D|----7~----------|    |----------------------------------------------------|2x
A|----5~----------|    |----------------------------------------------------|
E|----------------|    |----------------------------------------------------|
Guitars 1&2..(1:49)
e|-------------7v~~~---------|
B|---------------------------|
G|-5-5-5---------------------|
D|-5-5-5---------------------|
A|-3-3-3---------------------|
E|---------------------------|
Guitar 1..(1:52) "So why dont..." >=Certain Count <=8 Times
e|---------------------------------------------------------------------------|
B|---------------------------------------------------------------------------|
G|-5-----------5-----------5-----------5-5--5-5------------------------------|
D|-5>--5---0---5>--5---0---5>--5---0---5-5R-5-5<--5---0----------------------|
A|-3---5<--0<--3---5<--0<--3---5<--0<--3-3--3-3---5<--0<---------------------|
E|-----5---0-------5---0-------5---0--------------5---0----------------------|
Guitar 2..(1:52) "So why dont..." >=Certain Count <=8 Times
e|------------------|    |------------------------|fill #1
B|------------------|    |-8h10/12~---------------|
G|-5---12---14------|    |------------------------|
D|-5>---x<---x<-----|4x  |------------------------|3x
A|-3---10---12------|    |------------------------|
E|------------------|    |------------------------|
Guitar 1..(2:17) >=Certain Count <=8 Times
e|-7---5-----------|
B|-x>--x<----------|
G|-4---2-----------|
D|-----------------|4 1/2x
A|-----------------|
E|-----------------|
Guitar 2..(2:17)
e|-----------------------------|
B|-8~--8-8-8~--8~--8~----------|
G|-7~--7-7-7~--7~--7~----------|
D|-5~--5-5-5~--5~--5~----------|
A|-----------------------------|
E|-----------------------------|
Guitar 1..(2:31) "But I used to be..."
e|------------------------------2-2-2-2--------------------------------------|
B|-8-8-8-8-8-8-8-8-10-10-10-10---3-3-3-3-------------------------------------|
G|--7-7-7-7-7-7-7-7--7--7--7--7----------------------------------------------|
D|---------------------------------------------------------------------------|2x
A|---------------------------------------------------------------------------|
E|---------------------------------------------------------------------------|
Guitar 2..(2:31) "But I used to be..."
e|-7-7-7-7-7-7-7-5-5-5-5-10-10-10-10-----------------------------------------|
B|--8-8-8-8-8-8-8-8-8-8-8--8--8--8--8----------------------------------------|
G|---------------------------------------------------------------------------|
D|---------------------------------------------------------------------------|2x
A|---------------------------------------------------------------------------|
E|---------------------------------------------------------------------------|
Guitars 1&2..(2:43) 
e|-------------|
B|-------------|
G|-5-5-5-------|
D|-5-5-5-------|
A|-3-3-3-------|
E|-------------|
Guitar 1..(2:46) "So why dont..." >=Certain Count <=8 Times
e|---------------------------------------------------------------------------|
B|---------------------------------------------------------------------------|
G|-5-----------5-----------5-----------5-5--5-5------------------------------|
D|-5>--5---0---5>--5---0---5>--5---0---5-5R-5-5<--5---0----------------------|
A|-3---5<--0<--3---5<--0<--3---5<--0<--3-3--3-3---5<--0<---------------------|
E|-----5---0-------5---0-------5---0--------------5---0----------------------|
Guitar 2..(2:46) "So why dont..." >=Certain Count <=8 Times
e|------------------|    |------------------------|fill #1
B|------------------|    |-8h10/12~---------------|
G|-5---12---14------|    |------------------------|
D|-5>---x<---x<-----|4x  |------------------------|3x
A|-3---10---12------|    |------------------------|
E|------------------|    |------------------------|
Guitars 1&2..(3:12)
e|----------------------3h5-3~---------|
B|----------------------0~--0~---------|
G|-5-5--5-5-5--5-5---------------------|
D|-5-5R-5-5-5R-5-5---------------------|
A|-3-3--3-3-3--3-3---------------------|
E|-------------------------------------|
Guitars 1&2..(3:15)
e|---------------------------------------------------------------------------|
B|---------------------------------------------------------------------------|
G|-5-5--5-5-5--5-5-5--5-5-5--5-12-12--12-12-12--12-14-14--14-14-14--14-------|
D|-5-5R-5-5-5R-5-5-5R-5-5-5R-5--x--xR--x--x--xR--x--x--xR--x--x--xR--x-------|
A|-3-3--3-3-3--3-3-3--3-3-3--3-10-10--10-10-10--10-12-12--12-12-12--12-------|
E|---------------------------------------------------------------------------|
Guitars 1&2..(3:15) <=8 Times #=4 Times
e|---------------------------------------------------------------------------|
B|---------------------------------------------------------------------------|
G|-5-5--5-5-5--5-5-5--5-5-5--5-12---7--7-7-7-7-------------------------------|
D|-5-5R-5-5-5R-5-5-5R-5-5-5R-5-12<--7#-7-7-7-7-------------------------------|
A|-3-3--3-3-3--3-3-3--3-3-3--3-10---5--5-5-5-5-------------------------------|
E|---------------------------------------------------------------------------|
                               ..   .
Guitar 1..(3:28) "So why dont you..."
e|-3-5-3-5-7-3R--3-5-3R--3-5-7-5-3--------|
B|-0-0-0-0-0-0R--0-0-0R--0-0-0-0-0--------|
G|----------------------------------------|
D|----------------------------------------|4x
A|----------------------------------------|
E|----------------------------------------|
Guitar 2..(3:28)
e|---------------------------------------------------------------------------|
B|---------------------------------------------------------------------------|
G|-5-5--5-5-5--5-5-5--5-5-5--5-12-12--12-12-12--12-14-14--14-14-14--14-------|
D|-5-5R-5-5-5R-5-5-5R-5-5-5R-5--x--xR--x--x--xR--x--x--xR--x--x--xR--x-------|2x
A|-3-3--3-3-3--3-3-3--3-3-3--3-10-10--10-10-10--10-12-12--12-12-12--12-------|
E|---------------------------------------------------------------------------|
Guitars 1&2..(3:41) "...Do"
e|------------------------|
B|-8~--8~-8-----8~--8~----|
G|-7~--7~--7-7--7~--7~----|
D|-5~--5~---5---5~--5~----|
A|------------------------|
E|------------------------|
Guitars 1&2..(3:54) "And it's..."  Guitar 2 Fill (4:07)
e|-------------------------|     |--------------------------------|
B|-8>-7>-8>-7>-8>-7>-10>---|     |--8p7-7~--8p7-7~-7h8p7----------|
G|-0--0--0--0--0--0--0-----|     |-7-------7-------------7~-------|
D|-------------------------|     |--------------------------------|
A|-------------------------|     |--------------------------------|
E|-------------------------|     |--------------------------------|
Guitar 1 Cont..(4:07) <=4 Times or so? lol
e|---------------------------------------------------------------------------|
B|-8>-7>-8>-7>-8>-7>-10<-10~-10-10-10~-10-10---8~~---------------------------|
G|-0--0--0--0--0--0--0---0~--0--0--0~--0--0----7~~---------------------------|
D|---------------------------------------------5~~---------------------------|
A|---------------------------------------------5~~---------------------------|
E|---------------------------------------------5~~---------------------------|
Guitar 2 Cont..(4:10)
e|--------------------------------------------------------------------------|
B|-8-888-8-888-8-8--7-777-7-777-7-7--8>-7>-8>-7>-8>-8~-7-7--8~-7-7---8~~----|
G|-7-777-7-777-7-7--7-777-7-777-7-7--0--0--0--0--0--0~-0-0--0~-0-0---7~~----|
D|-------------------------------------------------------------------5~~----|
A|-------------------------------------------------------------------5~~----|
E|-------------------------------------------------------------------5~~----|
     ...   ...   .    ...   ...   .  .  .  .  .

There!, And this ***ing tab is done!!!!!!!!!!!! I hope you like it
NT is HARD!
Costa I'm gonna do you in the butt, watch!





Comments


Popular Name Taken tabs & chords
Safety Routine Bass Tabs
Hold On For Your Dearest Lie Chords
I Quit My Scene Chords
A Year Spent Cold Tabs
Control Intro Tabs
Cover Up Tabs
For Sunday 1 Tabs
Safety Of Routine 1 Tabs
You Do It So Well Tabs
Hold On For Your Dearest Lie Ukulele


Song lyrics



↑ Back to top | Tablatures and chords are parodies/interpretations of the original songs. You may use it for private study, scholarship, research or language learning purposes only
© 2014 AZChords.com Contact us | Privacy policy | DMCA | Add/correct tabs | Request tabs | Top 50 tabs