>
 >
For Sunday

For Sunday Guitar Tabs

Name Taken - For Sunday chords, tabs, tablatures, lyrics

Guitar lessons | Add/correct | Request | Top 50 tabs Artists:  A B C D E F G H I J K L M N O P Q R S T U V W X Y Z 0-9

For Sunday Guitar Tabs – Name Taken

CD, Sheet music, Poster

Do you like For Sunday? Share with your friends now
TabsTabs v2
this be a very sexy song


Guitar 1
----------------------------------------------------|
----------------------------------------------------|
---0---0--------------------------------------------|
---5---5--------------------------------------------|
---3---7--------------------------------------------|
---0---0--------------------------------------------|play each a few times


Guitar 2
-------------------------7~-----7~------------------|
----------------------------------------------------|
---7---5-4----5p4--2--5~-----5~----5~---------------|
------------5---------------------------------------|
----------------------------------------------------|
----------------------------------------------------|


Guitar 1
----------------------------------------------------|
----------------------------------------------------|
----------------------------------------------------|
---2~---5~------------------------------------------|
---2~---5~------------------------------------------|
---0~---3~------------------------------------------|


Guitar 2
----------------------------------------------------|
----------------------------------------------------|
---777---777---777---7--5-4-------------------------|
---777---777---777----------------------------------|
---555---555---555----------------------------------|
----------------------------------------------------|(x7)then guitar 1 does:
   ***         ***


Guitar 1
------------------------7----------------------------|
--------10-10-------10-----8-------------------------|
---777---------777-----------------------------------|
-----------------------------------------------------|
-----------------------------------------------------|
-----------------------------------------------------|
   ***         ***

Guitar 1 and 2 so this together till the drums come in then:

Guitar 1
------------------------------------------------------|
------------------------------------------------------|
------------------------------------------------------|
---2---5---7--10--9-----------------------------------|
---2---5---7--10--9-----------------------------------|
---0---3---5---8--7-----------------------------------|(x2)


Guitar 2
------------------------------------------------------|
---10p8--1010--8--10--12--10--8---10p8--12p8(x4)------|
------------------------------------------------------|
------------------------------------------------------|
------------------------------------------------------|
------------------------------------------------------|(x2)


Guitar 1
------------------------------------------------------|
------------------------------------------------------|
------------------------------------------------------|
---2---5---7--10---9---7---9--------------------------|
---2---5---7--10---9---7---9--------------------------|
---0---3---5---8---7---5---7--------------------------|(x2)
   *   *   *   *   *   *   *
guitar 2 lets 8 ring and joins the palm muting when guitar 1 gets to7
                                                                    7
                                                                    5

Guitar 2
------------------------------------------------------|
------------------------------------------------------|
------------------------------------------------------|
---2~-------------------------------------------------|
---2~-------------------------------------------------|
---0~---------------(pickslide)-----------------------|


Guitar 1
------------------------------------------------------|
------------------------------------------------------|
---5555---7777----------------------------------------|
---5555---7777----2222---5555-------------------------|
---3333---5555----2222---5555-------------------------|
------------------0000---3333-------------------------|(x2)


Guitar 2
------------------------------------------------------|
------------------------------------------------------|
---5555---7777--11111111--12121212--11111111----------|
---xxxx---xxxx---x x x x---x x x x---x x x x----------|
---3333---5555---9 9 9 9--10101010---9 9 9 9----------|
------------------------------------------------------|(x2)


Guitar 1
------------------------------------------------------|
------------------------------------------------------|
---40000500007000050000-------------------------------|
------------------------------------------------------|
------------------------------------------------------|
------------------------------------------------------|Fast picking for a while


Guitar 2
------------------------------------------------------|
------------------------------------------------------|
------------------------------------------------------|
---50000700009000070000-------------------------------|
------------------------------------------------------|
------------------------------------------------------|FAst picking for a while


Guitar 1
-------------------------------------------------------|
-------------------------------------------------------|
--14--16--18----------999999--99999-10-----------------|
---x---x---x----------xxxxxx--xxxxx--x-----------------|
--12--14--16----------777777--77777--8-----------------|
-------------------------------------------------------|(x2)


Guitar 2
-------------------------------------------------------|
-------------------------------------------------------|
-------------------------------------------------------|
---5---777777777------22222--22222--3------------------|
---5---777777777------22222--22222--3------------------|
---3---555555555------00000--00000--1------------------|(x2)


Guitar 1
-------------------------------------------------------|
-------------------------------------------------------|
--16--14-----------------------------------------------|
---x---x----------------------555---5~-----------------|
--14--12----------------------555---5~-----------------|
------------------------------333---3~-----------------|
                              ***

Guitar 2
-------------------------------------------------------|
-------------------------------------------------------|
---4---7---9--11--12----------555---5~-----------------|
---x---x---x---x---x----------555---5~-----------------|
---2---5---7---9--10----------333---3~-----------------|
-------------------------------------------------------|                              ***


Guitar 1
-------------------------------------------------------|
-------------------------------------------------------|
-------------------------------------------------------|
---2~-------2~---5~---7~--10~---9~---------------------|
---2~-------2~---5~---7~--10~---9~---------------------|
---0~-------0~---3~---5~---8~---7~---------------------|


Guitar 2
-------------------------------------------------------|
-------------------------------------------------------|
-------------------------------------------------------|
------------2~-----------------------------------------|
------------2~-----------------------------------------|
------------0~-----------------------------------------|


Guitar 1
------------------------------------------------------|
------------------------------------------------------|
---5555---7777----------------------------------------|
---5555---7777----2222---5555-------------------------|
---3333---5555----2222---5555-------------------------|
------------------0000---3333-------------------------|(x2)


Guitar 2
------------------------------------------------------|
------------------------------------------------------|
---5555---7777--11111111--12121212--11111111----------|
---xxxx---xxxx---x x x x---x x x x---x x x x----------|
---3333---5555---9 9 9 9--10101010---9 9 9 9----------|
------------------------------------------------------|(x2)


Guitar 1
------------------------------------------------------|
------------------------------------------------------|
---40000500007000050000-------------------------------|
------------------------------------------------------|
------------------------------------------------------|
------------------------------------------------------|Fast picking for a while


Guitar 2
------------------------------------------------------|
------------------------------------------------------|
------------------------------------------------------|
---50000700009000070000-------------------------------|
------------------------------------------------------|
------------------------------------------------------|FAst picking for a while


Guitar 1
------------------------------------------------------|
------------------------------------------------------|
------------------------------------------------------|
---2---------2----------2------------2----------------|
---2---------2----------2------------2----------------|
---0---------0----------0------------0----------------|Do again but change to 5
5
3(xa lot)

Guitar 2
-------------------------------------------------------|
-------------------------------------------------------|
--------11-------12----------16----------14------------|
---------x--------x-----------x-----------x------------|
---------9-------10----------14----------12------------|
-------------------------------------------------------|(xa lot)


Guitar 1
-------------------------------------------------------|
-------------------------------------------------------|
-------------------------------------------------------|
---2---5---7--10-----2---5---7--10---9-----------------|
---2---5---7--10-----2---5---7--10---9-----------------|
---0---3---5---8-----0---3---5---8---7-----------------|
   *   *   *   *     *   *   *   *   *


Guitar 2
-------------------------------------------------------|
-------------------------------------------------------|
--11--12--14--16--17--20--22---------------------------|
---x---x---x---x---x---x---x---------------------------|
---9--10--12--14--15--18--20---------------------------|
-------------------------------------------------------|


Guitar 1
------------------------------------------------------|
------------------------------------------------------|
---5555---7777----------------------------------------|
---5555---7777----2222---5555-------------------------|
---3333---5555----2222---5555-------------------------|
------------------0000---3333-------------------------|(x2)


Guitar 2
------------------------------------------------------|
------------------------------------------------------|
---5555---7777----------------------------------------|
---5555---7777----2222---5555-------------------------|
---3333---5555----2222---5555-------------------------|
------------------0000---3333-------------------------|(x2)

then stop and guitar 1 plays alone:

Guitar 1
----------------------------------------------------|
----------------------------------------------------|
---777---777---777---7--5-4-------------------------|
---777---777---777----------------------------------|
---555---555---555----------------------------------|
----------------------------------------------------|(x2)
   ***         ***


then the band joins in:

Guitar 1
----------------------------------------------------|
----------------------------------------------------|
---777---777---777---7--5-4-------------------------|
---777---777---777----------------------------------|
---555---555---555----------------------------------|
----------------------------------------------------|(x6)
   ***         ***


Guitar 2
------------------------7----------------------------|
--------10-10-------10-----8-------------------------|
---777---------777-----------------------------------|
-----------------------------------------------------|
-----------------------------------------------------|
-----------------------------------------------------|(x6)
   ***         ***


Guitar 1
-----------------------------------------------------|
-----------------------------------------------------|
---99999--99999--10----------------------------------|
---xxxxx--xxxxx---x----------------------------------|
---77777--77777---8----------------------------------|
-----------------------------------------------------|(x2)


Guitar 2
-----------------------------------------------------|
-----------------------------------------------------|
-----------------------------------------------------|
---22222--22222--3-----------------------------------|
---22222--22222--3-----------------------------------|
---00000--00000--1-----------------------------------|(x2)

Guitar 1
----------------------------------------------------|
----------------------------------------------------|
---777---777---777---7--5-4-------------------------|
---777---777---777----------------------------------|
---555---555---555----------------------------------|
----------------------------------------------------|(x2)
   ***         ***


Guitar 2
------------------------7----------------------------|
--------10-10-------10-----8-------------------------|
---777---------777-----------------------------------|
-----------------------------------------------------|
-----------------------------------------------------|
-----------------------------------------------------|(x2)
   ***         ***

Guitar 1
-----------------------------------------------------|
-----------------------------------------------------|
---99999--99999--10----------------------------------|
---xxxxx--xxxxx---x----------------------------------|
---77777--77777---8----------------------------------|
-----------------------------------------------------|(x2)


Guitar 2
-----------------------------------------------------|
-----------------------------------------------------|
-----------------------------------------------------|
---22222--22222--3-----------------------------------|
---22222--22222--3-----------------------------------|
---00000--00000--1-----------------------------------|(x2)


Guitar 1
-------------------------------------------------------|
-------------------------------------------------------|
--16--14-----------------------------------------------|
---x---x----------------------555---2~-----------------|
--14--12----------------------555---2~-----------------|
------------------------------333---0~-----------------|
                              ***

Guitar 2
-------------------------------------------------------|
-------------------------------------------------------|
---4---7---9--11--12----------555---2~-----------------|
---x---x---x---x---x----------555---2~-----------------|
---2---5---7---9--10----------333---0~-----------------|
                              ***

That took a while but it is a great song name taken rocks





Comments


Popular Name Taken tabs & chords
Magnolia Bass Tabs
Hold On For Your Dearest Lie Chords
A Year Spent Cold 1 Tabs
Cover Up Tabs
Safety Of Routine Tabs
Today Tabs
Today 2 Tabs
Waiting Intro Tabs
You Do It So Well Tabs
Write Back Ukulele


Song lyrics



↑ Back to top | Tablatures and chords are parodies/interpretations of the original songs. You may use it for private study, scholarship, research or language learning purposes only
© 2014 AZChords.com Contact us | Privacy policy | DMCA | Add/correct tabs | Request tabs | Top 50 tabs