» » »

Naked Raygun, Home Of The Brave Tabs (ver.1)

Artists:  A B C D E F G H I J K L M N O P Q R S T U V W X Y Z # 

Home Of The Brave Tabs (ver.1)

Naked Raygun Tabs
 Rating:
3.8/5 (5 votes)
Home Of The Brave lessons Tabs too difficult? Try these video lessons and learn fast
1
                -------------------------------------------------------------------------------
-------------------------------------------------------------------------------

Tuning: Standard E

these are the tabs for "Home Of The Brave".  an awesome song, and most of
it is pretty easy too.  i have no idea how to play the solo part, and i
probably tabbed the strum patterns a bit wrong.
so what?  IT'S PUNK!  compensate with some more volume and speed, and you
won't know the difference.


Riff A:

e|----------------------------------|
B|----------------------------------|
G|4-4-44446-66-666---------4-44-444-|
D|4-4-44446-66-6667-7-7777-4-44-444-|
A|2-2-22224-44-4447-7-7777-2-22-222-|
E|----------------5-5-5555----------|

Riff A2:

e|----------------------|
B|----------------------|
G|4-4-44446----------99-|
D|4-4-44446----------99-|
A|2-2-22224----------77-|
E|----------------------|

Riff B:

e|--------------------------------------------------------------|
B|--------------------------------------------------------------|
G|4-4-4444666666666666666666666664-4-444466666-4-------------99-|
D|4-4-4444666666666666666666666664-4-444466666-4-7-777777777799-|
A|2-2-2222444444444444444444446662-2-222244444-2-7-777777777777-|
E|-----------------------------------------------5-5555555555---|

Riff B2:

e|------------------------------------------------------------|
B|------------------------------------------------------------|
G|4-4-4444666666666666666666666664-4-444466666-4--------------|
D|4-4-4444666666666666666666666664-4-444466666-4-7-7777777777-|
A|2-2-2222444444444444444444446662-2-222244444-2-7-7777777777-|
E|-----------------------------------------------5-5555555555-|

Riff C:

e|--------------------------------|
B|--------------------------------|
G|---------------4-44444444444444-|
D|5-555555555554-4-44444444444444-|
A|5-555555555554-2-22222222222222-|
E|3-333333333332------------------|

Riff D:

e|------------------------------------------------------------|
B|------------------------------------------------------------|
G|---------------4-444444444446-7-777777777779-11-11111111111-|
D|5-555555555554-4-444444444446-7-777777777779-11-11111111111-|
A|5-555555555554-2-222222222224-5-555555555557-9--99999999999-|
E|3-333333333332----------------------------------------------|
             (yes, those are supposed to be elevens, not ones)

End:

e|---------------------------|
B|---------------------------|
G|4-4-44446-66-666---------4-|
D|4-4-44446-66-6667--7--7--4-|
A|2-2-22224-44-4447--7--7--2-|
E|----------------5--5--5----|

A
A2
B
B2
A x2
B
B2
A x4
C x2
D
A x3
End
            
Submit corrections

comments powered by Disqus
↑ Back to top | Naked Raygun Tabs for Home Of The Brave. Lyrics for acoustic guitar and electric guitar. 1 Tablatures and chords are parodies/interpretations of the original songs. You may use it for private study, scholarship, research or language learning purposes only