» » »

Entrapment Tabs (ver.1)

Artists:  A B C D E F G H I J K L M N O P Q R S T U V W X Y Z # 

Entrapment Tabs (ver.1)

Naked Raygun
Rating:
0/5 (0 votes)

Hard to play? Try these video lessons and learn fast.
                -------------------------------------------------------------------------------
-------------------------------------------------------------------------------

Tuning: Standard

INTRO
e|--------------3p2(2x)------------------------------------------------------|
B|---3p2(8x)----3----------3p2(2x)-----------------3(4x)---------------------|
G|---2----------2----------2----------4---6\7------2-------------------------|
D|---2----------0----------2----------4---6\7------2-------------------------|
A|---0---------------------0----------2---4\5------0-------------------------|
E|---------------------------------------------------------------------------|

VERSE
e|---------------------------------------------------------------------------|
B|-------------------------------------------3p2-----------------------------|
G|-----------7\9-------------7--6--4--6--7---2-------------------------------|
D|-----7\9---7\9-(3x)-7\9----7--6--4--6--7---2-------------------------------|
A|-----7\9---5\7------7\9----5--4--2--4--5---0-------------------------------|
E|-----5\7------------5\7----------------------------------------------------|

SOLO - Mostly on G string. Listen to get.

Thats pretty much it. Everything else is easy to figure out.

 
| /  slide up
| \  slide down
| h  hammer-on
| p  pull-off
| ~  vibrato
| +  harmonic
| x  Mute note
===============================================================================
            
Hard to play? Try these video lessons and learn fast. | Correct




comments powered by Disqus
↑ Back to top | Tablatures and chords are parodies/interpretations of the original songs. You may use it for private study, scholarship, research or language learning purposes only