» » »

Naked, Revolution Tabs (ver.1)

Artists:  A B C D E F G H I J K L M N O P Q R S T U V W X Y Z # 

Revolution Tabs (ver.1)

Naked Tabs
 Rating:
4.3/5 (6 votes)
Revolution lessons Tabs too difficult? Try these video lessons and learn fast
1
                revolution
naked
intro
e--------------------------------------|
B--------------------------------------|
G-6-6----9-999-9-9---------------------|
D-6-6----9-999-9-9---7-7--4-444-54-----|
A-4-4----7-777-7-7---7-7--4-444-54-----|
E--------------------5-5--2-222-320----|

e----------------------------------|
B-------------------12~-11~-10~-9~-|
G-6-6----9-999-9-9-----------------|
D-6-6----9-999-9-9-----------------|
A-4-4----7-777-7-7-----------------|
E----------------------------------|
                         im starting to feel surreal
e------------------*--------------------------|
B------------------*--------------------------|
G--------------4-4-*x4-----------6-------4----|
D-2222-2222-22-4-4-*-------------6-------4----|
A-2222-2222-22-2-2-*x4-----------4-------2----|
E-0000-0000-00-----*--------------------------|

e------------------|
B-9-----8----6-----|
G---8-----8----8---|
D-----6-----6----6-| comes in after the 2nd time played
A------------------|
E------------------|
pre chorus
e--------------------------------------|
B--------------------------------------|
G-----------9-8--1313-11---------------|
D-77777777-----------------------------|
A-77777777-----------------------------|
E-55555555-----------------------------|

e--------------------------------------|
B--------------------------------------|
G--------------------------------------|
D-77777777-66-77-99-99-----------------|
A-77777777-66-77-99-99-----------------|
E-55555555-44-55-77-88-----------------|

chorus
e--------------------------------------|
B--------------------------------------|
G-66666666-99999999--------------------|
D-66666666-99999999-77777777-66666666--|
A-44444444-77777777-77777777-66666666--|
E-------------------55555555-22222222--|

e--------------------14-14-14-14-14----|
B--------------------------------------|
G-66666666-99999999--------------------|
D-66666666-99999999--------------------|
A-44444444-77777777--------------------|
E--------------------------------------|

                               up all night
e------------------*--------------------------|
B------------------*--------------------------|
G--------------4-4-*x4-----------6-------4----|
D-2222-2222-22-4-4-*-------------6-------4----|
A-2222-2222-22-2-2-*x4-----------4-------2----|
E-0000-0000-00-----*--------------------------|

e------------------|
B-9-----8----6-----|
G---8-----8----8---|
D-----6-----6----6-| comes in after the 2nd time played
A------------------|
E------------------|

pre chorus
e--------------------------------------|
B--------------------------------------|
G-----------9-8--1313-11---------------|
D-77777777-----------------------------|
A-77777777-----------------------------|
E-55555555-----------------------------|

e--------------------------------------|
B--------------------------------------|
G--------------------------------------|
D-77777777-66-77-99-99-----------------|
A-77777777-66-77-99-99-----------------|
E-55555555-44-55-77-88-----------------|

chorus
e--------------------------------------|
B--------------------------------------|
G-66666666-99999999--------------------|
D-66666666-99999999-77777777-66666666--|
A-44444444-77777777-77777777-66666666--|
E-------------------55555555-22222222--|

e--------------------14-14-14-14-14----|
B--------------------------------------|
G-66666666-99999999--------------------|
D-66666666-99999999--------------------|
A-44444444-77777777--------------------|
E--------------------------------------|

solo
e-14-14-14-14-14p12---14-14p12---14-14p12----|
B-14---------------14---------14---------14--|
G--------------------------------------------|
D--------------------------------------------|
A--------------------------------------------|
E--------------------------------------------|

e-------------------------------------------------|
B-9-12-13-14----------------12-11-10-9-12-11-10-9-|
G------------13-11-9-11---------------------------|
D----------------------11-------------------------|
A-------------------------------------------------|
E-------------------------------------------------|
chorus

e--------------------------------------|
B--------------------------------------|
G-6-6-----------------------6-6--------|
D-6-6-----------------------6-6--------|
A-4-4-----------------------4-4--------|
E--------------------------------------|

chorus
e--------------------------------------|
B--------------------------------------|
G-66666666-99999999--------------------|
D-66666666-99999999-77777777-66666666--|
A-44444444-77777777-77777777-66666666--|
E-------------------55555555-22222222--|

e--------------------14-14-14-14-14----|
B--------------------------------------|
G-66666666-99999999--------------------|
D-66666666-99999999--------------------|
A-44444444-77777777--------------------|
E--------------------------------------|
            
Submit corrections

comments powered by Disqus
↑ Back to top | Naked Tabs for Revolution. Lyrics for acoustic guitar and electric guitar. 1 Tablatures and chords are parodies/interpretations of the original songs. You may use it for private study, scholarship, research or language learning purposes only