» » »

Naked, Raining On The Sky Bass tabs (ver.1)

Artists:  A B C D E F G H I J K L M N O P Q R S T U V W X Y Z # 

Raining On The Sky Bass tabs (ver.1)

Naked Tabs
 Rating:
4/5 (4 votes)
Raining On The Sky lessons Tabs too difficult? Try these video lessons and learn fast
                -------------------------------------------------------------------------------
-------------------------------------------------------------------------------


Tuning: Standard

Verse:
Bass comes in at 0:09

G|---------------------------------------------------------------------------|
D|---------------------------------------------------------------------------|
A|----33--3------------------------------------------------------------------|
E|3-5------55-5-11-1-33------------------------------------------------------|
Repeat until Pre Chorus

Pre- Chorus 0:56

G|---------------------------------------------------------------------------|
D|---------------------------------------------------------------------------|
A|---------------------------------------------------------------------------|
E|33-355-511-111-------------------------------------------------------------|

Chorus 1:23

G|---------------------------------------------------------------------------|
D|---------------------------------------------------------------------------|
A|----33--3------------------------------------------------------------------|
E|3-5------55-5-11-1-33------------------------------------------------------|

Repeat Verse, Pre Chorus and Chorus. Repeat Verse Riff until the end afterwards.

===============================================================================
            
Submit corrections

comments powered by Disqus
↑ Back to top | Naked Bass for Raining On The Sky. Lyrics for acoustic guitar and electric guitar. Tablatures and chords are parodies/interpretations of the original songs. You may use it for private study, scholarship, research or language learning purposes only