» » »

What Are You Waiting For Tabs (ver.2)

Artists:  A B C D E F G H I J K L M N O P Q R S T U V W X Y Z # 

What Are You Waiting For Tabs (ver.2)

Nailpin
Rating:
5/5 (1 vote)

Hard to play? Try these video lessons and learn fast.
                (Intro)
Number: What Are You Waiting For

E|------------------------------------------------|
B|------------------------------------------------|
G|------------------------------------------------|
D|--------4------4---------------4------4-3-------|
A|6-6-6-2----6-2-4-----2-2-2-2---2-2-1------------|
E|4-4-4------4----2-----0-0-0-----0---------------|

E|--------------------------------------------|
B|--------------------------------------------|
G|--------4-----4-----------------------------|
D|4-4-4-4---4-4-4------------4---4-5-5--------|
A|2-2-2------2---2-----4-4-4-4---4-4-4--------|
E|------------------------2-2-2-----2-3-3-----|

This is just the intro from the song.
That’s the only part I could find out how you play it.
But I am 100% sure that it’s correct.
It also sounds very good and it’s not difficult to play.
So please vote for me.
And enjoy it!!!!
            
Hard to play? Try these video lessons and learn fast. | Correct




comments powered by Disqus
↑ Back to top | Tablatures and chords are parodies/interpretations of the original songs. You may use it for private study, scholarship, research or language learning purposes only