» » »

Nailpin, Together Bass tabs (ver.1)

Artists:  A B C D E F G H I J K L M N O P Q R S T U V W X Y Z # 

Together Bass tabs (ver.1)

Nailpin Tabs
Rating:
5/5 (1 vote)
Together lessons Tabs too difficult? Try these video lessons and learn fast
                This is exacly what todts plays cause he made this tab

Intro:

F# |---6-----6-----6-9-----7-----6---------------|
C# |-7---7-7---7-7-----7-7---7-7---7-------------|
G# |---------------------------------------------|
D# |---------------------------------------------|

F# |--------------------9------------------------|
C# |---11-----11-----11------12----11------------|
G# |-9----9-9----9-9------99----99----9----------|
D# |---------------------------------------------|

F# |---6-----6-----6-9-----7-----6---------------|
C# |---------------------------------------------|
G# |-7---7-7---7-7-----7-7---7-7---7-------------|
D# |---------------------------------------------|

F# |---6-----6-----6-9-----7-----6---------------|
C# |-0---0-0---0-0-----0-0---0-0---0-------------|
G# |---------------------------------------------|
D# |---------------------------------------------|

F# |---6-----6-----6-9-----7-----6---------------|
C# |-7---7-7---7-7-----7-7---7-7---7-------------|
G# |---------------------------------------------|
D# |---------------------------------------------|
Although this brandy...

F# |--------------------9------------------------|
C# |---11-----11-----11------12----11------------|
G# |-9----9-9----9-9------99----99----9----------|
D# |---------------------------------------------|

F# |---6-----6-----6-9-----7-----6---------------|
C# |---------------------------------------------|
G# |-7---7-7---7-7-----7-7---7-7---7-------------|
D# |---------------------------------------------|

F# |---------------------------------------------|
C# |-0-------------------------------------------|
G# |---------------------------------------------|
D# |---------------------------------------------|

Overgang naar strofe

F# |------------------------------------------------------------------|
C# |-7----------------------------------------------------------------|
G# |-----------------99-999-999-999-977-777-777-777-755-555-555-555-5-|
D# |------------------------------------------------------------------|

Strofe 1

F# |------------------------------------------------------------------|
C# |-77-777-777-777-7-------------------------------------------------|
G# |-----------------99-999-999-999-977-777-777-777-755-555-555-555-5-|
D# |------------------------------------------------------------------|
Excuse my...

F# |---6---6---6-9---7---6-----------------9--------------6---6---6-9---7---6----6---6---7-9-|
C# |-7---7---7-----7---7------11---11---11-----12---11-------------------------0---0---0-----|
G# |------------------------9----9----9------9----9-----7---7---7-----7---7------------------|
D# |-----------------------------------------------------------------------------------------|

Refrein

F# |----------------------------------|
C# |----------------------------------|
G# |---------44444444--------77777777-|
D# |-55555555--------22222222---------|
Together...

F# |----------------------------------|
C# |----------------------------------|
G# |---------44444444--------77777777-|
D# |-55555555--------22222222---------|

F# |----------------------------------|
C# |----------------------------------|
G# |---------44444444--------77777777-|
D# |-55555555--------22222222---------|

F# |----------------------------------|
C# |----------------------------------|
G# |---------44444444--------77777777-|
D# |-55555555--------22222222---------|

Overgang naar strofe

F# |------------------------------------------------------------------|
C# |-7----------------------------------------------------------------|
G# |-----------------99-999-999-999-977-777-777-777-755-555-555-555-5-|
D# |------------------------------------------------------------------|

Strofe 2

F# |------------------------------------------------------------------|
C# |-77-777-777-777-7-------------------------------------------------|
G# |-----------------99-999-999-999-977-777-777-777-755-555-555-555-5-|
D# |------------------------------------------------------------------|
A few months...

F# |---6---6---6-9---7---6----------------------6---6---6-9---7---6----6---6---6-9---7---6--|
C# |-7---7---7-----7---7---------------------------------------------0---0---0-----0---0----|
G# |------------------------999---------------7---7---7-----7---7---------------------------|
D# |----------------------------------------------------------------------------------------|

Slide op begin drumfill


F# |----------------------------------------------|
C# |-7 -----> 0 ----------------------------------|
G# |----------------------------------------------|
D# |----------------------------------------------|

Refrein

F# |----------------------------------|
C# |----------------------------------|
G# |---------44444444--------77777777-|
D# |-55555555--------22222222---------|
Together...

F# |----------------------------------|
C# |----------------------------------|
G# |---------44444444--------77777777-|
D# |-55555555--------22222222---------|

F# |----------------------------------|
C# |----------------------------------|
G# |---------44444444--------77777777-|
D# |-55555555--------22222222---------|

F# |----------------------------------|
C# |----------------------------------|
G# |---------44444444--------77777777-|
D# |-55555555--------22222222---------|

Bridge (lange noten)


F# |----------------------------------|
C# |----------------------------------|
G# |-0--------------------------------|
D# |----------------------------------|


F# |--------------------------------------------------------------------|
C# |--------------------------------------------------------------------|
G# |-0----------------0----------------------0----------------0---------|
D# |-----0---2---10-------------0---2---10-------0---2---10-------0---2-|
Every step...

weer korte noten (opbouwen naar gitaarsolo toe)
F# |------------------------------------------------|
C# |------------------------------------------------|
G# |------------------------------------------------|
D# |-10-10-10-10-10-10-10-10-... -------------------|


F# |----------------------------------|
C# |----------------------------------|
G# |---------44444444--------77777777-|
D# |-55555555--------22222222---------|

F# |----------------------------------|
C# |----------------------------------|
G# |---------44444444--------77777777-|
D# |-55555555--------22222222---------|

Refrein

F# |----------------------------------|
C# |----------------------------------|
G# |---------4-4-------------7-7------|
D# |-5-5-------------2-2--------------|
Together...

F# |----------------------------------|
C# |----------------------------------|
G# |---------4-4-------------7-7------|
D# |-5-5-------------2-2--------------|


F# |----------------------------------|
C# |----------------------------------|
G# |---------44444444--------77777777-|
D# |-55555555--------22222222---------|

F# |----------------------------------|
C# |----------------------------------|
G# |---------44444444--------7--------|
D# |-55555555--------22222222---------|
            

comments powered by Disqus
↑ Back to top | Nailpin Bass for Together. Lyrics for acoustic guitar and electric guitar. Tablatures and chords are parodies/interpretations of the original songs. You may use it for private study, scholarship, research or language learning purposes only