» » »

Nailbomb, Wasting Away Tabs (ver.1)

Artists:  A B C D E F G H I J K L M N O P Q R S T U V W X Y Z # 

Wasting Away Tabs (ver.1)

Nailbomb Tabs
 Rating:
4/5 (4 votes)
Wasting Away lessons Tabs too difficult? Try these video lessons and learn fast
1
                Band: Nailbomb

Guitar 1 (Max Cavalera)

d||--------------------------|
A||--------------------------|
F||--------------------------|  4X
C||--------------------------|
G||---8\7--7\8\7--7\8\7--7\4-|
D||---6\5--5\6\5--5\6\5--5\2-|

Guitar 2 (Andreas Kisser). guitar 2 just
enter in song when guitar 1 is playing that
part the 3rd time!!! (sorry for my engish)

d||--------------------------|
A||--------------------------|
F||--------------------------|
C||--------------------------|
G||---8\7---8\7-----8\7------|
D||---6\5---6\5-----6\5---17-|


Guitar 1 & 2

d||--------------------------|
A||--------------------------|
F||--------------------------|  4X
C||--------------------------|
G||---8\7--7\8\7--7\8\7--7\4-|
D||---6\5--5\6\5--5\6\5--5\2-|

Guitar 1 & 2

d||--------------------------|
A||--------------------------|
F||--------------------------|   4X
C||--------------------------|
G||--------------------------|
D||---0-1-2-3----------------|

Guitar 1 & 2

d||--------------------------|      \
A||--------------------------|       \
F||--------------------------|  4X    \
C||--------------------------|         \
G||---8\7--7\8\7--7\8\7--7\4-|          \
D||---6\5--5\6\5--5\6\5--5\2-|           \
                                          \ 
Guitar 1 & 2                               \
                                           /  2X
d||--------------------------|            /
A||--------------------------|           /
F||--------------------------|   4X     /
C||--------------------------|         /   
G||--------------------------|        /
D||---0--1--2--3-------------|       /

Guitar 1 & 2

d||--------------------------|      \
A||--------------------------|       \
F||--------------------------|   3X   \
C||--------------------------|         \
G||---4--4--3--5-------------|          \
D||---2--2--1--3-------------|           \
                                          \
Guitar 1 & 2                               \
                                           /  2X
d||--------------------------|            /
A||--------------------------|           /
F||--------------------------|   1X     /
C||--------------------------|         /
G||--------------------------|        /
D||---2--1--2-2-2-2-1--------|       /

After that is a bass solo

While bass solo:

Guitar 1 & 2

d||-----------|
A||-----------|
F||-----------|
C||-----------|
G||---2-------|
D||---0-------|

After bass solo:

Guitar 1:

d||-------------------------|      \
A||-------------------------|       \
F||-------------------------|   7X   \
C||-------------------------|         \
G||-------------------------|          \
D||---0--7--6--9------------|           \
                                         \
Guitar 1                                  \
                                          /  Here Guitar 2 makes a solo
d||--------------------------|           /
A||--------------------------|          /
F||--------------------------|   4X    /
C||--------------------------|        /
G||--------------------------|       /
D||---0-1-2-3----------------|      /

Guitar 1 & 2

Guitar 1 & 2

d||--------------------------|
A||--------------------------|
F||--------------------------|  8X
C||--------------------------|
G||---8\7--7\8\7--7\8\7--7\4-|
D||---6\5--5\6\5--5\6\5--5\2-|

Guitar 1 & 2

d||--------------------------|
A||--------------------------|
F||--------------------------|   4X
C||--------------------------|
G||--------------------------|
D||---0-1-2-3----------------|

And the song ends with Guitar 1 & 2

d||-----------|
A||-----------|
F||-----------|
C||-----------|
G||---4-------|
D||---2-------|
            
Submit corrections

comments powered by Disqus
↑ Back to top | Nailbomb Tabs for Wasting Away. Lyrics for acoustic guitar and electric guitar. 1 Tablatures and chords are parodies/interpretations of the original songs. You may use it for private study, scholarship, research or language learning purposes only