» » »

Naglfar, The Brimstone Gate Bass tabs (ver.1)

Artists:  A B C D E F G H I J K L M N O P Q R S T U V W X Y Z # 

The Brimstone Gate Bass tabs (ver.1)

Naglfar Tabs
 Rating:
4/5 (4 votes)
The Brimstone Gate lessons Tabs too difficult? Try these video lessons and learn fast
                G||--------------------------------------------|
D||--------------------------------------------|
A||--------------------------------------------|
E||--0--0-0-0--0--0-0-0-0-0--0-0-0--0--0-0-0-0-|
B||--------------------------------------------|


                                             
--------------------------------------------|
--------------------------------------------|
--------------------------------------------|
--0--0-0-0--0--0-0-0-0-0--0-0-0--0--0-0-0-0-|
--------------------------------------------|


                                             
--------------------------------------------|
--------------------------------------------|
--------------------------------------------|
--0--0-0-0--0--0-0-0-0-0--0-0-0--0--0-0-0-0-|
--------------------------------------------|


                                             
--------------------------------------------|
--------------------------------------------|
--------------------------------------------|
--0--0-0-0--0--0-0-0-0-0--0-0-0--0--0-0-0-0-|
--------------------------------------------|


                                             
--------------------------------------------|
--------------------------------------------|
--------------------------------------------|
--0--0-0-0--0--0-0-0-0-0--0-0-0--0--0-0-0-0-|
--------------------------------------------|


                                             
--------------------------------------------|
--------------------------------------------|
--------------------------------------------|
--0--0-0-0--0--0-0-0-0-0--0-0-0--0--0-0-0-0-|
--------------------------------------------|


                                          
-----------------------------------------|
-----------------------------------------|
--5--7--7--7--7-7-7--7--7-7-7--7--7-7-7--|
-----------------------------------------|
-----------------------------------------|


                                        
---------------------------------------|
---------------------------------------|
--7--3--3--3--3-3-3--3--2--2--2--5--5--|
---------------------------------------|
---------------------------------------|


                                          
-----------------------------------------|
-----------------------------------------|
--5--7--7--7--7-7-7--7--7-7-7--7--7-7-7--|
-----------------------------------------|
-----------------------------------------|


                                        
---------------------------------------|
---------------------------------------|
--7--3--3--3--3-3-3--3--2--2--2--5--5--|
---------------------------------------|
---------------------------------------|


                                          
-----------------------------------------|
-----------------------------------------|
--5--7--7--7--7-7-7--7--7-7-7--7--7-7-7--|
-----------------------------------------|
-----------------------------------------|


                                        
---------------------------------------|
---------------------------------------|
--7--3--3--3--3-3-3--3--2--2--2--5--5--|
---------------------------------------|
---------------------------------------|


                                          
-----------------------------------------|
-----------------------------------------|
--5--7--7--7--7-7-7--7--7-7-7--7--7-7-7--|
-----------------------------------------|
-----------------------------------------|


                                        
---------------------------------------|
---------------------------------------|
--7--3--3--3--3-3-3--3--2--2--2--5--5--|
---------------------------------------|
---------------------------------------|


                                           
------------------------------------------|
------------------------------------------|
------------------------------------------|
--0--0-0-0--0--0-0-0--0--0-0-0--0--0-0-0--|
------------------------------------------|


                                           
------------------------------------------|
------------------------------------------|
------------------------------------------|
------------------------------------------|
--3--3-3-3--3--3-3-3--3--3-3-3--3--3-3-3--|


                                           
------------------------------------------|
------------------------------------------|
------------------------------------------|
------------------------------------------|
--0--0-0-0--0--0-0-0--0--0-0-0--0--0-0-0--|


                                           
------------------------------------------|
------------------------------------------|
------------------------------------------|
------------------------------------------|
--1--1-1-1--1--1-1-1--3--3-3-3--3--3-3-3--|


                                           
------------------------------------------|
------------------------------------------|
------------------------------------------|
--0--0-0-0--0--0-0-0--0--0-0-0--0--0-0-0--|
------------------------------------------|


                                                                              
------------------------------------------|----------------------------------|
------------------------------------------|----------------------------------|
------------------------------------------|----------------------------------|
------------------------------------------|--0----0--0--0--0--0--0--0--0--0--|
--3--3-3-3--3--3-3-3--3--3-3-3--3--3-3-3--|----------------------------------|


                                                                         
------------------------------|-----------------------------------------|
------------------------------|-----------------------------------------|
--3--3--3--3--3--3------------|--5--7--7--7--7-7-7--7--7-7-7--7--7-7-7--|
--------------------2----5----|-----------------------------------------|
------------------------------|-----------------------------------------|


                                        
---------------------------------------|
---------------------------------------|
--7--3--3--3--3-3-3--3--2--2--2--5--5--|
---------------------------------------|
---------------------------------------|


                                          
-----------------------------------------|
-----------------------------------------|
--5--7--7--7--7-7-7--7--7-7-7--7--7-7-7--|
-----------------------------------------|
-----------------------------------------|


                                        
---------------------------------------|
---------------------------------------|
--7--3--3--3--3-3-3--3--2--2--2--5--5--|
---------------------------------------|
---------------------------------------|


                                          
-----------------------------------------|
-----------------------------------------|
--5--7--7--7--7-7-7--7--7-7-7--7--7-7-7--|
-----------------------------------------|
-----------------------------------------|


                                        
---------------------------------------|
---------------------------------------|
--7--3--3--3--3-3-3--3--2--2--2--5--5--|
---------------------------------------|
---------------------------------------|


                                          
-----------------------------------------|
-----------------------------------------|
--5--7--7--7--7-7-7--7--7-7-7--7--7-7-7--|
-----------------------------------------|
-----------------------------------------|


                                        
---------------------------------------|
---------------------------------------|
--7--3--3--3--3-3-3--3--2--2--2--5--5--|
---------------------------------------|
---------------------------------------|


                                           
------------------------------------------|
------------------------------------------|
------------------------------------------|
--0--0-0-0--0--0-0-0--0--0-0-0--0--0-0-0--|
------------------------------------------|


                                           
------------------------------------------|
------------------------------------------|
------------------------------------------|
------------------------------------------|
--3--3-3-3--3--3-3-3--3--3-3-3--3--3-3-3--|


                                           
------------------------------------------|
------------------------------------------|
------------------------------------------|
------------------------------------------|
--0--0-0-0--0--0-0-0--0--0-0-0--0--0-0-0--|


                                           
------------------------------------------|
------------------------------------------|
------------------------------------------|
------------------------------------------|
--1--1-1-1--1--1-1-1--3--3-3-3--3--3-3-3--|


                                           
------------------------------------------|
------------------------------------------|
------------------------------------------|
--0--0-0-0--0--0-0-0--0--0-0-0--0--0-0-0--|
------------------------------------------|


                                           
------------------------------------------|
------------------------------------------|
------------------------------------------|
------------------------------------------|
--3--3-3-3--3--3-3-3--3--3-3-3--3--3-3-3--|


                                           
------------------------------------------|
------------------------------------------|
------------------------------------------|
------------------------------------------|
--0--0-0-0--0--0-0-0--0--0-0-0--0--0-0-0--|


                                                               
------------------------------------------|-------------------|
------------------------------------------|-------------------|
------------------------------------------|-------------------|
------------------------------------------|--0----------------|
--1--1-1-1--1--1-1-1--3--3-3-3--3--3-3-3--|-------------------|


                                                                                
-------------------|-------------------|-------------------|-------------------|
-------------------|-------------------|-------------------|-------------------|
-------------------|--3----------------|-------------------|-------------------|
--0----------------|-------------------|--0----------------|--0----------------|
-------------------|-------------------|-------------------|-------------------|


                                                            
-------------------|-------------------|-------------------|
-------------------|-------------------|-------------------|
-------------------|--3----------------|-------------------|
--0----------------|-------------------|--0----------------|
-------------------|-------------------|-------------------|


                                           
------------------------------------------|
------------------------------------------|
------------------------------------------|
--0--0-0-0--0--0-0-0--0--0-0-0--0--0-0-0--|
------------------------------------------|


                                           
------------------------------------------|
------------------------------------------|
------------------------------------------|
------------------------------------------|
--3--3-3-3--3--3-3-3--3--3-3-3--3--3-3-3--|


                                           
------------------------------------------|
------------------------------------------|
------------------------------------------|
------------------------------------------|
--0--0-0-0--0--0-0-0--0--0-0-0--0--0-0-0--|


                                           
------------------------------------------|
------------------------------------------|
------------------------------------------|
------------------------------------------|
--1--1-1-1--1--1-1-1--3--3-3-3--3--3-3-3--|


                                           
------------------------------------------|
------------------------------------------|
------------------------------------------|
--0--0-0-0--0--0-0-0--0--0-0-0--0--0-0-0--|
------------------------------------------|


                                           
------------------------------------------|
------------------------------------------|
------------------------------------------|
------------------------------------------|
--3--3-3-3--3--3-3-3--3--3-3-3--3--3-3-3--|


                                           
------------------------------------------|
------------------------------------------|
------------------------------------------|
------------------------------------------|
--0--0-0-0--0--0-0-0--0--0-0-0--0--0-0-0--|


                                           
------------------------------------------|
------------------------------------------|
------------------------------------------|
------------------------------------------|
--1--1-1-1--1--1-1-1--3--3-3-3--3--3-3-3--|


                                                                              
--------------------------------------|--------------------------------------|
--------------------------------------|--------------------------------------|
--7--7--7--7--7--7--5--5--5--5--5--5--|--3--3--3--3--3--3--5--5--5--5--5--5--|
--------------------------------------|--------------------------------------|
--------------------------------------|--------------------------------------|


                                                                              
--------------------------------------|--------------------------------------|
--------------------------------------|--------------------------------------|
--7--7--7--7--7--7--5--5--5--5--5--5--|--3--3--3--3--3--3--5--5--5--5--5--5--|
--------------------------------------|--------------------------------------|
--------------------------------------|--------------------------------------|


                                                                              
--------------------------------------|--------------------------------------|
--------------------------------------|--------------------------------------|
--7--7--7--7--7--7--5--5--5--5--5--5--|--3--3--3--3--3--3--5--5--5--5--5--5--|
--------------------------------------|--------------------------------------|
--------------------------------------|--------------------------------------|


                                                                     
--------------------------------------|-----------------------------|
--------------------------------------|-----------------------------|
--7--7--7--7--7--7--5--5--5--5--5--5--|--3--3--3--3--3--3--5--------|
--------------------------------------|-----------------------------|
--------------------------------------|-----------------------------|


                                          
-----------------------------------------|
-----------------------------------------|
--5--7--7--7--7-7-7--7--7-7-7--7--7-7-7--|
-----------------------------------------|
-----------------------------------------|


                                        
---------------------------------------|
---------------------------------------|
--7--3--3--3--3-3-3--3--2--2--2--5--5--|
---------------------------------------|
---------------------------------------|


                                          
-----------------------------------------|
-----------------------------------------|
--5--7--7--7--7-7-7--7--7-7-7--7--7-7-7--|
-----------------------------------------|
-----------------------------------------|


                                        
---------------------------------------|
---------------------------------------|
--7--3--3--3--3-3-3--3--2--2--2--5--5--|
---------------------------------------|
---------------------------------------|


                                          
-----------------------------------------|
-----------------------------------------|
--5--7--7--7--7-7-7--7--7-7-7--7--7-7-7--|
-----------------------------------------|
-----------------------------------------|


                                        
---------------------------------------|
---------------------------------------|
--7--3--3--3--3-3-3--3--2--2--2--5--5--|
---------------------------------------|
---------------------------------------|


                                          
-----------------------------------------|
-----------------------------------------|
--5--7--7--7--7-7-7--7--7-7-7--7--7-7-7--|
-----------------------------------------|
-----------------------------------------|


                                        
---------------------------------------|
---------------------------------------|
--7--3--3--3--3-3-3--3--2--2--2--5--5--|
---------------------------------------|
---------------------------------------|


                                           
------------------------------------------|
------------------------------------------|
------------------------------------------|
--0--0-0-0--0--0-0-0--0--0-0-0--0--0-0-0--|
------------------------------------------|


                                           
------------------------------------------|
------------------------------------------|
------------------------------------------|
------------------------------------------|
--3--3-3-3--3--3-3-3--3--3-3-3--3--3-3-3--|


                                           
------------------------------------------|
------------------------------------------|
------------------------------------------|
------------------------------------------|
--0--0-0-0--0--0-0-0--0--0-0-0--0--0-0-0--|


                                           
------------------------------------------|
------------------------------------------|
------------------------------------------|
------------------------------------------|
--1--1-1-1--1--1-1-1--3--3-3-3--3--3-3-3--|


                                           
------------------------------------------|
------------------------------------------|
------------------------------------------|
--0--0-0-0--0--0-0-0--0--0-0-0--0--0-0-0--|
------------------------------------------|


                                           
------------------------------------------|
------------------------------------------|
------------------------------------------|
------------------------------------------|
--3--3-3-3--3--3-3-3--3--3-3-3--3--3-3-3--|


                                           
------------------------------------------|
------------------------------------------|
------------------------------------------|
------------------------------------------|
--0--0-0-0--0--0-0-0--0--0-0-0--0--0-0-0--|


                                           
------------------------------------------|
------------------------------------------|
------------------------------------------|
------------------------------------------|
--1--1-1-1--1--1-1-1--3--3-3-3--3--3-3-3--|


                                                                              
--------------------------------------|--------------------------------------|
--------------------------------------|--------------------------------------|
--7--7--7--7--7--7--5--5--5--5--5--5--|--3--3--3--3--3--3--5--5--5--5--5--5--|
--------------------------------------|--------------------------------------|
--------------------------------------|--------------------------------------|


                                                                              
--------------------------------------|--------------------------------------|
--------------------------------------|--------------------------------------|
--7--7--7--7--7--7--5--5--5--5--5--5--|--3--3--3--3--3--3--5--5--5--5--5--5--|
--------------------------------------|--------------------------------------|
--------------------------------------|--------------------------------------|


                                                                              
--------------------------------------|--------------------------------------|
--------------------------------------|--------------------------------------|
--7--7--7--7--7--7--5--5--5--5--5--5--|--3--3--3--3--3--3--5--5--5--5--5--5--|
--------------------------------------|--------------------------------------|
--------------------------------------|--------------------------------------|


                                                                              
--------------------------------------|--------------------------------------|
--------------------------------------|--------------------------------------|
--7--7--7--7--7--7--5--5--5--5--5--5--|--3--3--3--3--3--3--5--5--5--5--5--5--|
--------------------------------------|--------------------------------------|
--------------------------------------|--------------------------------------|


                                                                                
-------------------|-------------------|-------------------|-------------------|
-------------------|-------------------|-------------------|-------------------|
-------------------|-------------------|--3----------------|-------------------|
--0----------------|--0----------------|-------------------|--0----------------|
-------------------|-------------------|-------------------|-------------------|


                                                      
--------------------------|--------------------------|
-----------------------2--|-----------------------2--|
--7----2----3----2--5-----|--7----2----3----2--5-----|
--------------------------|--------------------------|
--------------------------|--------------------------|


                                                                           
--------------------------|--------------------------|--------------------|
-----------------------2--|-----------------------2--|--------------------|
--7----2----3----2--5-----|--7----2----3----2--5-----|--3--------2--------|
--------------------------|--------------------------|--------------------|
--------------------------|--------------------------|--------------------|


                                                                
--------------------|---------------------|--------------------|
--------------------|---------------------|--------------------|
--7--------5--------|--3--------5----2----|-----------2--------|
--------------------|---------------------|--0-----------------|
--------------------|---------------------|--------------------|


                                                                
--------------------|--------------------|---------------------|
--------------------|--------------------|---------------------|
--3--------2--------|--7--------5--------|--3--------5----2----|
--------------------|--------------------|---------------------|
--------------------|--------------------|---------------------|


                                                                              
--------------------------------------|--------------------------------------|
--------------------------------------|--------------------------------------|
--7--7--7--7--7--7--5--5--5--5--5--5--|--3--3--3--3--3--3--5--5--5--5--5--5--|
--------------------------------------|--------------------------------------|
--------------------------------------|--------------------------------------|


                                                                              
--------------------------------------|--------------------------------------|
--------------------------------------|--------------------------------------|
--7--7--7--7--7--7--5--5--5--5--5--5--|--3--3--3--3--3--3--5--5--5--5--5--5--|
--------------------------------------|--------------------------------------|
--------------------------------------|--------------------------------------|


                                                                              
--------------------------------------|--------------------------------------|
--------------------------------------|--------------------------------------|
--7--7--7--7--7--7--5--5--5--5--5--5--|--3--3--3--3--3--3--5--5--5--5--5--5--|
--------------------------------------|--------------------------------------|
--------------------------------------|--------------------------------------|


                                                                              
--------------------------------------|--------------------------------------|
--------------------------------------|--------------------------------------|
--7--7--7--7--7--7--5--5--5--5--5--5--|--3--3--3--3--3--3--5--5--5--5--5--5--|
--------------------------------------|--------------------------------------|
--------------------------------------|--------------------------------------|


                                                                              
--------------------------------------|--------------------------------------|
--------------------------------------|--------------------------------------|
--9--9--9--9--9--9--7--7--7--7--7--7--|--5--5--5--5--5--5--7--7--7--7--7--7--|
--------------------------------------|--------------------------------------|
--------------------------------------|--------------------------------------|


                                                                              
--------------------------------------|--------------------------------------|
--------------------------------------|--------------------------------------|
--9--9--9--9--9--9--7--7--7--7--7--7--|--5--5--5--5--5--5--7--7--7--7--7--7--|
--------------------------------------|--------------------------------------|
--------------------------------------|--------------------------------------|


                                                                              
--------------------------------------|--------------------------------------|
--------------------------------------|--------------------------------------|
--9--9--9--9--9--9--7--7--7--7--7--7--|--5--5--5--5--5--5--7--7--7--7--7--7--|
--------------------------------------|--------------------------------------|
--------------------------------------|--------------------------------------|


                                                                     
--------------------------------------|-----------------------------|
--------------------------------------|-----------------------------|
--9--9--9--9--9--9--7--7--7--7--7--7--|--5--5--5--5--5--5--7--------|
--------------------------------------|-----------------------------|
--------------------------------------|-----------------------------|


                                          
-----------------------------------------|
-----------------------------------------|
--7--9--9--9--9-9-9--9--9-9-9--9--9-9-9--|
-----------------------------------------|
-----------------------------------------|


                                        
---------------------------------------|
---------------------------------------|
--9--5--5--5--5-5-5--5--4--4--4--7--7--|
---------------------------------------|
---------------------------------------|


                                          
-----------------------------------------|
-----------------------------------------|
--7--9--9--9--9-9-9--9--9-9-9--9--9-9-9--|
-----------------------------------------|
-----------------------------------------|


                                        
---------------------------------------|
---------------------------------------|
--9--5--5--5--5-5-5--5--4--4--4--7--7--|
---------------------------------------|
---------------------------------------|


                                          
-----------------------------------------|
-----------------------------------------|
--7--9--9--9--9-9-9--9--9-9-9--9--9-9-9--|
-----------------------------------------|
-----------------------------------------|


                                        
---------------------------------------|
---------------------------------------|
--9--5--5--5--5-5-5--5--4--4--4--7--7--|
---------------------------------------|
---------------------------------------|


                                          
-----------------------------------------|
-----------------------------------------|
--7--9--9--9--9-9-9--9--9-9-9--9--9-9-9--|
-----------------------------------------|
-----------------------------------------|


                                        
---------------------------------------|
---------------------------------------|
--9--5--5--5--5-5-5--5--4--4--4--7--7--|
---------------------------------------|
---------------------------------------|


                                          
-----------------------------------------|
-----------------------------------------|
--7--9--9--9--9-9-9--9--9-9-9--9--9-9-9--|
-----------------------------------------|
-----------------------------------------|


                                        
---------------------------------------|
---------------------------------------|
--9--5--5--5--5-5-5--5--4--4--4--7--7--|
---------------------------------------|
---------------------------------------|


                                          
-----------------------------------------|
-----------------------------------------|
--7--9--9--9--9-9-9--9--9-9-9--9--9-9-9--|
-----------------------------------------|
-----------------------------------------|


                                        
---------------------------------------|
---------------------------------------|
--9--5--5--5--5-5-5--5--4--4--4--7--7--|
---------------------------------------|
---------------------------------------|


                                          
-----------------------------------------|
-----------------------------------------|
--7--9--9--9--9-9-9--9--9-9-9--9--9-9-9--|
-----------------------------------------|
-----------------------------------------|


                                        
---------------------------------------|
---------------------------------------|
--9--5--5--5--5-5-5--5--4--4--4--7--7--|
---------------------------------------|
---------------------------------------|


                                          
-----------------------------------------|
-----------------------------------------|
--7--9--9--9--9-9-9--9--9-9-9--9--9-9-9--|
-----------------------------------------|
-----------------------------------------|


                                         
---------------------------------------||
---------------------------------------||
--9--5--5--5--5-5-5--5--4--4--4--7--7--||
---------------------------------------||
---------------------------------------||

enjoy
            
Submit corrections

comments powered by Disqus
↑ Back to top | Naglfar Bass for The Brimstone Gate. Lyrics for acoustic guitar and electric guitar. Tablatures and chords are parodies/interpretations of the original songs. You may use it for private study, scholarship, research or language learning purposes only