» » »

Naglfar, I Am Vengeance Tabs (ver.1)

Artists:  A B C D E F G H I J K L M N O P Q R S T U V W X Y Z # 

I Am Vengeance Tabs (ver.1)

Naglfar Tabs
Rating:
5/5 (5 votes)
I Am Vengeance lessons Tabs too difficult? Try these video lessons and learn fast
                Album:Sheol



Riff 1: 3 Times (0:11)
Gtr 1 Gtr 2 joins 2nd/3rd time pick fast (do in sections 1 2 3 4)
                                1/3|                              2|                              4|| 
e||----------------|---------------|---------------|---------------|---------------|---------------||
b||-8-8-8-8-8-8-8-8|7-7-7-7-4-4-4-4|8-8-8-8-8-8-8-8|8-8-7-7-4-4-4-4|4-4-4-4-4-4-4-4|7-7-7-7-7-7-7-7||
g||-9-9-9-9-9-9-9-9|8-8-8-8-5-5-5-5|9-9-9-9-9-9-9-9|9-9-8-8-5-5-5-5|5-5-5-5-5-5-5-5|8-8-8-8-8-8-8-8||
d||-9-9-9-9-9-9-9-9|8-8-8-8-5-5-5-5|9-9-9-9-9-9-9-9|9-9-8-8-5-5-5-5|5-5-5-5-5-5-5-5|8-8-8-8-8-8-8-8||
a||-7-7-7-7-7-7-7-7|6-6-6-6-3-3-3-3|7-7-7-7-7-7-7-7|7-7-6-6-3-3-3-3|3-3-3-3-3-3-3-3|6-6-6-6-6-6-6-6||
E||----------------|---------------|---------------|---------------|---------------|---------------||
 ||
 ||Gtr 2 1st time               1/3|                              2|                              4||
e||----------------|---------------|---------------|---------------|---------------|---------------||
b||----------------|---------------|---------------|---------------|---------------|---------------||
g||-9--------------|8-------5------|9-------------9|9---8---5------|5--------------|8--------------||
d||-9--------------|8-------5------|9-------------9|9---8---5------|5--------------|8--------------||
a||-7--------------|6-------3------|7-------------7|7---6---3------|3--------------|6--------------||
E||----------------|---------------|---------------|---------------|---------------|---------------||

Riff 2: 2 Times (0:42)
Both Gtrs
e||----------------|---------------|---------------|---------------|---------------|---------------|
b||-8-8-8-8-8-8-8-8|---------------|9-9-9-9-6-6-9-9|8-8-8-8-8-8-8-8|8-8-8-8-8-8-8-8|---------------|
g||-9-9-9-9-9-9-9-9|6-6-6-6-6-6-6-6|101010107-71010|9-9-9-9-9-9-9-9|9-9-9-9-9-9-9-9|7-7-7-7-7-7-7-7|
d||-9-9-9-9-9-9-9-9|8-8-8-8-8-8-8-8|101010107-71010|9-9-9-9-9-9-9-9|9-9-9-9-9-9-9-9|8-8-8-8-8-8-8-8|
a||-7-7-7-7-7-7-7-7|8-8-8-8-8-8-8-8|8-8-8-8-5-5-8-8|7-7-7-7-7-7-7-7|7-7-7-7-7-7-7-7|8-8-8-8-8-8-8-8|
E||----------------|6-6-6-6-6-6-6-6|---------------|---------------|---------------|6-6-6-6-6-6-6-6|
 || 
 ||                                                                                                 
e||----------------|---------------|---------------|---------------|---------------|---------------|
b||-8-8-8-8-8-8-8-8|---------------|9-9-9-9-6-6-9-9|8-8-8-8-8-8-8-8|8-8-8-8-8-8-8-8|---------------|
g||-9-9-9-9-9-9-9-9|6-6-6-6-6-6-6-6|101010107-71010|9-9-9-9-9-9-9-9|9-9-9-9-9-9-9-9|7-7-7-7-7-7-7-7|
d||-9-9-9-9-9-9-9-9|8-8-8-8-8-8-8-8|101010107-71010|9-9-9-9-9-9-9-9|9-9-9-9-9-9-9-9|8-8-8-8-8-8-8-8|
a||-7-7-7-7-7-7-7-7|8-8-8-8-8-8-8-8|8-8-8-8-5-5-8-8|7-7-7-7-7-7-7-7|7-7-7-7-7-7-7-7|8-8-8-8-8-8-8-8|
E||----------------|6-6-6-6-6-6-6-6|---------------|---------------|---------------|6-6-6-6-6-6-6-6|

e||---------------|-------||  
b||---------------|----6-9||  
g||5-5-5-5-5-5-5-5|4-1-710||  
d||7-7-7-7-7-7-7-7|6-3-710||  
a||7-7-7-7-7-7-7-7|6-3-5-8||  
E||5-5-5-5-5-5-5-5|4-1----||  
 ||                           
 ||(play 8 12s same as above) 
e||---------------|-------||  
b||13-13-13-13-13-|129-6-9||  
g||14-14-14-14-14-|1310710||  
d||14-14-14-14-14-|1310710||  
a||12-12-12-12-12-|118-5-8||  
E||---------------|-------||  



Riff 3: 3 times (1:03)
Gtr 1 Gtr 2 (play in triplet feel)
(7-7-7)=2nd/3rd time
e||---------------------------------------------------|-----------------------------------------------------|
b||---------------------------------------------------|-----------------------------------------------------|
g||---------------------------------------------------|-----------------------------------------------------|
d||-------------9-9-9---------------------------------|------------9-9-9-------10-10-10-9-9-9-7-7-7-10-10-10|
a||(7-7-7)7-7-7-------7-7-7-10-10-10-9-9-9-6-6-6-9-9-9|7-7-7-7-7-7-------7-7-7------------------------------|
E||-0-0-0---------------------------------------------|-----------------------------------------------------|
 ||
 ||Gtr 2 
e||---------------------------------------------------|-----------------------------------------------------|
b||---------------------------------------------------|-----------------------------------------------------|
g||---------------------------------------------------|-----------------------------------------------------|
d||-2-2-2--2------------------------------------------|2-2-2--2---------------------------------------------|
a||-2-2-2--2------------------------------------------|2-2-2--2---------------------------------------------|
E||-0-0-0--0-0-0-0-0-0-0-0-0-0-0-0-0-0-0-0-0-0-0-0-0-0|0-0-0--0-0-0-0-0-0-0-0-0-0-0-0-0-0-0-0-0-0-0-0-0-0-0-|



e||---------------------------------------------------|--------------------------------------------------||
b||---------------------------------------------------|--------------------------------------------------||
g||---------------------------------------------------|--------------------------------------------------||
d||-9-9-9---------------------------------------------|------7-7-7-5h7p5---------------------------------||
a||-------7-7-7-------7-7-7-6-6-6-7-7-7-9-9-9-10-10-10|------------------9-9-9-6-6-6-9-9-9-10-10-10-6-6-6||
E||-------------8-8-8---------------------------------|8-8-8---------------------------------------------||
 ||                                                                                                      ||
 ||Gtr 2 (tremlo pick on 2nd/3rd time)                                                                   ||
e||---------------------------------------------------|--------------------------------------------------||
b||---------------------------------------------------|--------------------------------------------------||
g||-5-----------------------4-------------------------|5-----------------------7-----------5-------------||
d||-5-----------------------4-------------------------|5-----------------------7-----------5-------------||
a||-3-----------------------2-------------------------|3-----------------------5-----------3-------------||
e||---------------------------------------------------|--------------------------------------------------||

Play Riff 2: 2 Times (1:34)
Play Riff 3: 2 Times (1:55)


Riff 4: 4 times (2:16)
Both Gtrs                                                                        end here 2nd time only     |
e||------------------------------------------------------------------------------------------------------------------||
b||--------8-8-8-8-8-8-8-8--------7-7-7-7-7-7-7-7--------8-8-8-8-8-8-8-8-8--------10-10-10-10-11-11-11-11-11-11-11-11||
g||--------9-9-9-9-9-9-9-9--------8-8-8-8-8-8-8-8--------9-9-9-9-9-9-9-9-9--------11-11-11-11-12-12-12-12-12-12-12-12||
d||-2-2-2--9-9-9-9-9-9-9-9-2-2-2--8-8-8-8-8-8-8-8-2-2-2--9-9-9-9-9-9-9-9-9-2-2-2--11-11-11-11-12-12-12-12-12-12-12-12||
a||-2-2-2--7-7-7-7-7-7-7-7-2-2-2--6-6-6-6-6-6-6-6-2-2-2--7-7-7-7-7-7-7-7-7-2-2-2--9--9--9--9--10-10-10-10-10-10-10-10||
E||-0-0-0------------------0-0-0------------------0-0-0--------------------0-0-0-------------------------------------||

Solo (2:52)(play each section 2 times)
Gtr 1                   1/3/5                         2/6                            4/7
e||---------------------------||--------------------------||-----------------------------||------------------||
b||---------------------------||--------------------------||-----------------------------||T18P14T18P14P11H12||
g||-T16P12P9-T16P12P9-T16P12P9||T15P11P8-T15P11P8-T15P11P8||T17P13P10-T17P13P10-T17P13P10||------------------||
d||---------------------------||--------------------------||-----------------------------||------------------||
a||---------------------------||--------------------------||-----------------------------||------------------||
E||---------------------------||--------------------------||-----------------------------||------------------||

Riff 5: 1 Time (3:02)
Both Gtrs             1/3/5                     2/6                             4
e||------------------------|-----------------------|-----------------------------|----------------------------------------||
b||-------------------8-8-8|7-7-7------------------|9-9-9------------------------|----------------------------------------||
g||-------------9-9-9------|------8-8-8------------|------10-10-10---------------|------------------------8-8-8-----------||
d||-------9-9-9------------|------------8-8-8------|---------------10-10-10------|---------------10-10-10-----------------||
a||-7-7-7------------------|------------------6-6-6|------------------------8-8-8|------10-10-10----------------8--11-7-10||
E||------------------------|-----------------------|-----------------------------|8-8-8---------------------------8----7--||

Play Riff 2: 2 Times (3:13)
Play Riff 1: 2 Times (3:33)
Play Riff 3: 2 Times (3:54)
Play Riff 5: 2 Times (4:15)
Play Solo  : 2 Times (4:36)
Play Riff 4: 2 Times (4:57)

End with d||-2-2-2-2||
         a||-2-2-2-2||
         E||-0-0-0-0||
            
Submit corrections

comments powered by Disqus
↑ Back to top | Naglfar Tabs for I Am Vengeance. Lyrics for acoustic guitar and electric guitar. Tablatures and chords are parodies/interpretations of the original songs. You may use it for private study, scholarship, research or language learning purposes only